Oops, an error
Loading. Please wait.

Babylon Fell - Dulcis Parum Lepis tab

56 views 1 this week
no commentswrite comment
1 2 3 4 5
3 more votes to show rating
add to favorites
×
Save as Personal and add changes to this tab that will be seen only by you. Learn more ›
×
You can save this tab as Personal to edit and correct it or add notes. All changes will be seen only by you. Learn more »
launch autoscroll
font size
0
reset
how to read this tab
guitar tuner
edit
Autoscroll
slow
fast
+/-
esc
set tempo
stop
                            Dulcis Parum Lepus


                              Babylon Fell
Jake



                   PM PM   PM PM        
     S S S S S S S S  S  S S  S  S S S  
E||------------------------------------|
B||------------------------------------|
G||--------5---------------------------|
D||----------8-7-----------------------|
A||--------------8-------1-------3-1---|
D||--5-5-5---------1--1----3--3------3-|


                  PM PM   PM PM                          PM PM   PM PM        
  S S S S S S   S S  S  S S  S  S S   S    S S S S S S S S  S  S S  S  S S S  
----------------------------------------|------------------------------------|
----------------------------------------|------------------------------------|
--------8-7-----------------------------|--------5---------------------------|
------------8s-10-------5-------7-------|----------8-7-----------------------|
------------------3--3----5--5----6s-10-|--------------8-------1-------3-1---|
--5-5-5---------------------------------|--5-5-5---------1--1----3--3------3-|


                PM PM   PM PM                          PM PM   PM PM          
  S S S S S S S S  S  S S  S  S S S    S S S S S S   S S  S  S S  S  S S   S  
------------------------------------|----------------------------------------|
------------------------------------|----------------------------------------|
--------5---------------------------|--------8-7-----------------------------|
----------8-7-----------------------|------------8s-10-------5-------7-------|
--------------8-------1-------3-1---|------------------3--3----5--5----6s-10-|
--5-5-5---------1--1----3--3------3-|--5-5-5---------------------------------|


                PM PM   PM PM                                              
  S S S S S S S S  S  S S  S  S S S    S S S S S S S S S S S S S S  S   S  
------------------------------------|-------------------------------------|
------------------------------------|-------------------------------------|
--------5---------------------------|-------------------------------------|
----------8-7-----------------------|----------------0-8-7-5---5----------|
--------------8-------1-------3-1---|------------------------8---8-10s-12-|
--5-5-5---------1--1----3--3------3-|--5-5-0-3-0-1-0----------------------|


                PM PM   PM PM                          PM PM   PM PM          
  S S S S S S S S  S  S S  S  S S S    S S S S S S   S S  S  S S  S  S S   S  
------------------------------------|----------------------------------------|
------------------------------------|----------------------------------------|
--------5---------------------------|--------8-7-----------------------------|
----------8-7-----------------------|------------8s-10-------5-------7-------|
--5-5-5-------8-------1-------3-1---|--5-5-5-----------3--3----5--5----6s-10-|
--5-5-5---------1--1----3--3------3-|--5-5-5---------------------------------|


                PM PM   PM PM                                        
  S S S S S S S S  S  S S  S  S S S    S S S S S S S S S S S E  S S  
------------------------------------|-------------------------------|
------------------------------------|-------------------------------|
--------5---------------------------|-------------------------------|
----------8-7-----------------------|-------------------------------|
--5-5-5-------8-------1-------3-1---|--8-8-8-8-8-8-8-8-7-7-7-5--5-5-|
--5-5-5---------1--1----3--3------3-|--8-8-8-8-8-8-8-8-7-7-7-5--5-5-|


       PM PM     PM PM                    
                       |-3-|              
  E  S S  S  S S S  S  S S S  S S S S  S  
-----------------------------------------|
-----------------------------------------|
-----------------------------------------|
-----------------------7-8-7-------------|
--0----------7-8-------------10-8-7-8-10-|
--0--0-0--0------0--0--------------------|


                  PM PM                  
       |-3-|            |-3-|            
  E  S S S S  S S S  S  S S S S S S S S  
----------------------------------------|
----------------------------------------|
----------------------------------------|
----------------------------------------|
--8----7-8-7------------4-5-4-----------|
--8--8-------10-8-5--5--------7-5-4-5-7-|


       PM PM     PM PM                    
                       |-3-|              
  E  S S  S  S S S  S  S S S  S S S S  S  
-----------------------------------------|
-----------------------------------------|
-----------------------------------------|
-----------------------7-8-7-------------|
--0----------7-8-------------10-8-7-8-10-|
--0--0-0--0------0--0--------------------|


       |-3-|           |-3-|              
  E  S S S S  S S S  S S S S  S S S S  S  
-----------------------------------------|
-----------------------------------------|
-----------------------------------------|
-----------------------7-8-7-------------|
--8----7-8-7--------10-------10-8-7-8-10-|
--8--8-------10-8-7----------------------|


       PM PM     PM PM                    
                       |-3-|              
  E  S S  S  S S S  S  S S S  S S S S  S  
-----------------------------------------|
-----------------------------------------|
-----------------------------------------|
-----------------------7-8-7-------------|
--0----------7-8-------------10-8-7-8-10-|
--0--0-0--0------0--0--------------------|


                  PM PM                  
       |-3-|            |-3-|            
  E  S S S S  S S S  S  S S S S S S S S  
----------------------------------------|
----------------------------------------|
----------------------------------------|
----------------------------------------|
--8----7-8-7------------4-5-4-----------|
--8--8-------10-8-5--5--------7-5-4-5-7-|


       PM PM     PM PM                    
                       |-3-|              
  E  S S  S  S S S  S  S S S  S S S S  S  
-----------------------------------------|
-----------------------------------------|
-----------------------------------------|
-----------------------7-8-7-------------|
--0----------7-8-------------10-8-7-8-10-|
--0--0-0--0------0--0--------------------|


       |-3-|           |-3-|                                       
  E  S S S S  S S S  S S S S  S S S S  S    S S Q.     S S Q.      
-----------------------------------------|------------------------|
-----------------------------------------|------3----------3------|
-----------------------------------------|------3----------2------|
-----------------------7-8-7-------------|----5----------5--------|
--8----7-8-7--------10-------10-8-7-8-10-|--6----------5----------|
--8--8-------10-8-7----------------------|------------------------|


  S S Q.     S S Q.        S S Q.     S S Q.        S S Q.     S S Q.      
------------------------|------------------------|------------------------|
------3----------3------|------3----------3------|------3----------3------|
------0----------3------|------3----------2------|------0----------3------|
----5----------3--------|----5----------5--------|----5----------3--------|
--3----------1----------|--6----------5----------|--3----------1----------|
------------------------|------------------------|------------------------|


  S S S S S S S S S S S S S S S S    S S S S S S S S  S  S  S  S S S S S  
----------------------------------|--------------------------------------|
----------------------------------|--------------------------------------|
------------------3-3-3-3-3-3-3-3-|--8-8-8-8-8-8-8-8-10-10-10-10-7-7-7-7-|
--5-5-5-5-5-5-5-5-----------------|--------------------------------------|
------------------1-1-1-1-1-1-1-1-|--6-6-6-6-6-6-6-6--8--8--8--8-5-5-5-5-|
--5-5-5-5-5-5-5-5-----------------|--------------------------------------|


  S S S S S S S S S S S S S S S S    S S S S S S S S S S S S S S S S  
----------------------------------|----------------------------------|
----------------------------------|----------------------------------|
--8-8-8-8-8-8-8-8-8-8-8-8-8-8-8-8-|------------------3-3-3-3---------|
----------------------------------|--5-5-5-5-5-5-5-5---------1-1-1-1-|
--6-6-6-6-6-6-6-6-6-6-6-6-6-6-6-6-|------------------1-1-1-1---------|
----------------------------------|--5-5-5-5-5-5-5-5---------1-1-1-1-|


  S S S S S S S S S S S S S S  S   S         H        H         
-------------------------------------|----|--------------------|
-------------------------------------|----|--------------------|
-------------------------------------|----|--------------------|
----------------0-8-7-5---5----------|----|--5--------7--------|
------------------------8---8-10s-12-|----|--5--------7--------|
--5-5-0-3-0-1-0----------------------|----|--5--------7--------|


   H         Q     Q       H        H            H         Q     Q     
------------------------|--------------------|------------------------|
------------------------|--------------------|------------------------|
------------------------|--------------------|------------------------|
--13--------12----10----|--5--------7--------|--13--------12----10----|
--13--------12----10----|--5--------7--------|--13--------12----10----|
--13--------12----10----|--5--------7--------|--13--------12----10----|


  S S S S S S S S S S S S S S S S  
----------------------------------|
----------------------------------|
----------------------------------|
--5-------------------------------|
--5-----5-----5---7-----7-----7---|
--5-5-5-5-5-5-5-5-7-7-7-7-7-7-7-7-|


   S  S  S  S  S  S  S  S  S  S  S  S  S  S  S  S  
--------------------------------------------------|
--------------------------------------------------|
--------------------------------------------------|
--13----------------------12-------10-------------|
--13-------13-------13----12-------10-------10----|
--13-13-13-13-13-13-13-13-12-12-12-10-10-10-10-10-|


  S S S S S S S S S S S S S S S S  
----------------------------------|
----------------------------------|
----------------------------------|
--5-------------------------------|
--5-----5-----5---7-----7-----7---|
--5-5-5-5-5-5-5-5-7-7-7-7-7-7-7-7-|


   S  S  S  S  S  S  S  S  S  S  S  S  S  S  S  S    H.            E.   
--------------------------------------------------|--------------------|
--------------------------------------------------|--------------------|
--------------------------------------------------|--------------------|
--13----------------------12-------10-------------|--------------------|
--13-------13-------13----12-------10-------10----|--5\------------L---|
--13-13-13-13-13-13-13-13-12-12-12-10-10-10-10-10-|--5-------------L---|


       PM PM     PM PM                    
                       |-3-|              
  E  S S  S  S S S  S  S S S  S S S S  S  
-----------------------------------------|
-----------------------------------------|
-----------------------------------------|
-----------------------7-8-7-------------|
--0----------7-8-------------10-8-7-8-10-|
--0--0-0--0------0--0--------------------|


                  PM PM                  
       |-3-|            |-3-|            
  E  S S S S  S S S  S  S S S S S S S S  
----------------------------------------|
----------------------------------------|
----------------------------------------|
----------------------------------------|
--8----7-8-7------------4-5-4-----------|
--8--8-------10-8-5--5--------7-5-4-5-7-|


       PM PM     PM PM                    
                       |-3-|              
  E  S S  S  S S S  S  S S S  S S S S  S  
-----------------------------------------|
-----------------------------------------|
-----------------------------------------|
-----------------------7-8-7-------------|
--0----------7-8-------------10-8-7-8-10-|
--0--0-0--0------0--0--------------------|


                                                       PM PM                    
       |-3-|           |-3-|                                 |-3-|              
  E  S S S S  S S S  S S S S  S S S S  S    Q    S S S S  S  S S S  S S S S  S  
-----------------------------------------|-------------------------------------|
-----------------------------------------|-------------------------------------|
-----------------------------------------|-------------------------------------|
-----------------------7-8-7-------------|-------------------7-8-7-------------|
--8----7-8-7--------10-------10-8-7-8-10-|---------7-8-------------10-8-7-8-10-|
--8--8-------10-8-7----------------------|-------0-----0--0--------------------|


                  PM PM                  
       |-3-|            |-3-|            
  E  S S S S  S S S  S  S S S S S S S S  
----------------------------------------|
----------------------------------------|
----------------------------------------|
----------------------------------------|
--8----7-8-7------------4-5-4-----------|
--8--8-------10-8-5--5--------7-5-4-5-7-|


       PM PM     PM PM                    
                       |-3-|              
  E  S S  S  S S S  S  S S S  S S S S  S  
-----------------------------------------|
-----------------------------------------|
-----------------------------------------|
-----------------------7-8-7-------------|
--0----------7-8-------------10-8-7-8-10-|
--0--0-0--0------0--0--------------------|


       |-3-|           |-3-|              
  E  S S S S  S S S  S S S S  S S S S  S  
-----------------------------------------|
-----------------------------------------|
-----------------------------------------|
-----------------------7-8-7-------------|
--8----7-8-7--------10-------10-8-7-8-10-|
--8--8-------10-8-7----------------------|


  PM PM PM PM PM PM PM PM PM PM PM PM PM PM PM PM  
  S  S  S  S  S  S  S  S  S  S  S  S  S  S  S  S   
--------------------------------------------------|
--------------------------------------------------|
--------3--------3--------------3--------3--------|
-----5--------5--------5-----5--------5--------5--|
--6--------6--------6-----5--------5--------5-----|
--------------------------------------------------|


  PM PM PM PM PM PM PM PM PM PM PM PM PM PM PM PM  
  S  S  S  S  S  S  S  S  S  S  S  S  S  S  S  S   
--------------------------------------------------|
--------------------------------------------------|
--------3--------3--------------3--------3--------|
-----5--------5--------5-----3--------3-----------|
--3--------3--------3-----1--------1--------1--0--|
--------------------------------------------------|


  S S S S S S S S S S S S S S S S    S S S S S S S S S S S S S S S S  
----------------------------------|----------------------------------|
----------------------------------|----------------------------------|
------3-----3---5-----3-----3---5-|------3-----3---5-----3-----3-----|
----5-----5---------5-----5-------|----5-----5---------3-----3-----5-|
--6-----6-----6---5-----5-----5---|--3-----3-----3---1-----1-----3---|
----------------------------------|----------------------------------|


  PM PM PM PM PM PM PM PM PM PM PM PM PM PM PM PM  
  S  S  S  S  S  S  S  S  S  S  S  S  S  S  S  S   
--------------------------------------------------|
--------------------------------------------------|
--------3--------3--------------3--------3--------|
-----5--------5--------5-----5--------5--------5--|
--6--------6--------6-----5--------5--------5-----|
--------------------------------------------------|


  PM PM PM PM PM PM PM PM PM PM PM PM PM PM PM PM  
  S  S  S  S  S  S  S  S  S  S  S  S  S  S  S  S   
--------------------------------------------------|
--------------------------------------------------|
--------3--------3--------------3--------3--------|
-----5--------5--------5-----3--------3-----------|
--3--------3--------3-----1--------1--------1--0--|
--------------------------------------------------|


  S S S S S S S S S S S S S S S S    S S S S S S S S S S S S S S S S  
----------------------------------|----------------------------------|
----------------------------------|----------------------------------|
------3-----3---5-----3-----3---5-|------3-----3---5-----3-----3-----|
----5-----5---------5-----5-------|----5-----5---------3-----3-----5-|
--6-----6-----6---5-----5-----5---|--3-----3-----3---1-----1-----3---|
----------------------------------|----------------------------------|


  S S S S S S S S S S S S S S  S   S         H        H         
-------------------------------------|----|--------------------|
-------------------------------------|----|--------------------|
-------------------------------------|----|--------------------|
----------------0-8-7-5---5----------|----|--5--------7--------|
------------------------8---8-10s-12-|----|--5--------7--------|
--5-5-0-3-0-1-0----------------------|----|--5--------7--------|


   H         Q     Q       H        H            H         Q     Q     
------------------------|--------------------|------------------------|
------------------------|--------------------|------------------------|
------------------------|--------------------|------------------------|
--13--------12----10----|--5--------7--------|--13--------12----10----|
--13--------12----10----|--5--------7--------|--13--------12----10----|
--13--------12----10----|--5--------7--------|--13--------12----10----|


  H        H            H         Q     Q       H        H         
--------------------|------------------------|--------------------|
--------------------|------------------------|--------------------|
--------------------|------------------------|--------------------|
--5--------7--------|--13--------12----10----|--5--------7--------|
--5--------7--------|--13--------12----10----|--5--------7--------|
--5--------7--------|--13--------12----10----|--5--------7--------|


   H         Q     Q       W                   W                 
------------------------|-------------------|-------------------|
------------------------|-------------------|-------------------|
------------------------|-------------------|-------------------|
--13--------12----10----|--8----------------|--L----------------|
--13--------12----10----|--8----------------|--L----------------|
--13--------12----10----|--8----------------|--L----------------|


                PM PM   PM PM                          PM PM   PM PM          
  S S S S S S S S  S  S S  S  S S S    S S S S S S   S S  S  S S  S  S S   S  
------------------------------------|----------------------------------------|
------------------------------------|----------------------------------------|
--------5---------------------------|--------8-7-----------------------------|
----------8-7-----------------------|------------8s-10-------5-------7-------|
--------------8-------1-------3-1---|------------------3--3----5--5----6s-10-|
--5-5-5---------1--1----3--3------3-|--5-5-5---------------------------------|


                PM PM   PM PM                        PM PM   PM PM        
  S S S S S S S S  S  S S  S  S S S    S S S S S S S S  S  S S  S  S S S  
------------------------------------|------------------------------------|
------------------------------------|------------------------------------|
--------5---------------------------|--------5---------------------------|
----------8-7-----------------------|----------8-7-----------------------|
--------------8-------1-------3-1---|--------------8-------1-------3-1---|
--5-5-5---------1--1----3--3------3-|--5-5-5---------1--1----3--3------3-|


                  PM PM   PM PM                          PM PM   PM PM        
  S S S S S S   S S  S  S S  S  S S   S    S S S S S S S S  S  S S  S  S S S  
----------------------------------------|------------------------------------|
----------------------------------------|------------------------------------|
--------8-7-----------------------------|--------5---------------------------|
------------8s-10-------5-------7-------|----------8-7-----------------------|
------------------3--3----5--5----6s-10-|--------------8-------1-------3-1---|
--5-5-5---------------------------------|--5-5-5---------1--1----3--3------3-|


                                                      PM PM   PM PM        
  S S S S S S S S S S S S S S  S   S    S S S S S S S S  S  S S  S  S S S  
-------------------------------------|------------------------------------|
-------------------------------------|------------------------------------|
-------------------------------------|--------5---------------------------|
----------------0-8-7-5---5----------|----------8-7-----------------------|
------------------------8---8-10s-12-|--5-5-5-------8-------1-------3-1---|
--5-5-0-3-0-1-0----------------------|--5-5-5---------1--1----3--3------3-|


                  PM PM   PM PM                          PM PM   PM PM        
  S S S S S S   S S  S  S S  S  S S   S    S S S S S S S S  S  S S  S  S S S  
----------------------------------------|------------------------------------|
----------------------------------------|------------------------------------|
--------8-7-----------------------------|--------5---------------------------|
------------8s-10-------5-------7-------|----------8-7-----------------------|
--5-5-5-----------3--3----5--5----6s-10-|--5-5-5-------8-------1-------3-1---|
--5-5-5---------------------------------|--5-5-5---------1--1----3--3------3-|


                                                   PM PM   PM PM        
  S S S S S S S S S S S S S S S S    S S S S S S S S  S  S S  S  S S S  
----------------------------------|------------------------------------|
----------------------------------|------------------------------------|
----------------------------------|--------5---------------------------|
----------------------------------|----------8-7-----------------------|
----------------1-1-1-0-0---------|--5-5-5-------8-------1-------3-1---|
--5-5-0-1-0-3-0-----------3-7-5-0-|--5-5-5---------1--1----3--3------3-|


                  PM PM   PM PM                          PM PM   PM PM        
  S S S S S S   S S  S  S S  S  S S   S    S S S S S S S S  S  S S  S  S S S  
----------------------------------------|------------------------------------|
----------------------------------------|------------------------------------|
--------8-7-----------------------------|--------5---------------------------|
------------8s-10-------5-------7-------|----------8-7-----------------------|
--5-5-5-----------3--3----5--5----6s-10-|--5-5-5-------8-------1-------3-1---|
--5-5-5---------------------------------|--5-5-5---------1--1----3--3------3-|


  S S S S S S S S S S S S S S S S                           
----------------------------------|----|----|----|----|----|
----------------------------------|----|----|----|----|----|
----------------------------------|----|----|----|----|----|
----------------------------------|----|----|----|----|----|
----------------1-1-1-0-0---------|----|----|----|----|----|
--5-5-0-1-0-3-0-----------3-7-5-0-|----|----|----|----|----|


   S  S  S  S  S  S  S  S  S  S  S  S  S  S  S   S     S  S  S  S  T  T  T  T  
---------------------------------------------------|-----------------12-15-12-|
--------18-------20--------------------------------|--------------13----------|
--12-15----12-15----------19-------17--------------|-----------12-------------|
--------------------12-15----12-15----12-15-17s-19-|--------14----------------|
---------------------------------------------------|--12-15-------------------|
---------------------------------------------------|--------------------------|


                                H        H            H         Q     Q     
----|----|----|----|----|----|--------------------|------------------------|
----|----|----|----|----|----|--------------------|------------------------|
----|----|----|----|----|----|--------------------|------------------------|
----|----|----|----|----|----|--5--------3--------|--13--------12----10----|
----|----|----|----|----|----|--5--------3--------|--13--------12----10----|
----|----|----|----|----|----|--5--------3--------|--13--------12----10----|


  H        H            S  S Q     E   S  S Q.        H        H         
--------------------|------------------------------|--------------------|
--------------------|------------------------------|--------------------|
--------------------|------------------------------|--------------------|
--5--------3--------|------------------------------|--5--------3--------|
--5--------3--------|--13-13------13--12-12--------|--5--------3--------|
--5--------3--------|--13-13------13--12-12--------|--5--------3--------|


   H         Q     Q       H        H            H         Q     Q     
------------------------|--------------------|------------------------|
------------------------|--------------------|------------------------|
------------------------|--------------------|------------------------|
--13--------12----10----|--5--------3--------|--13--------12----10----|
--13--------12----10----|--5--------3--------|--13--------12----10----|
--13--------12----10----|--5--------3--------|--13--------12----10----|


                       PM PM   PM PM   PM PM PM PM PM   PM        
  W                    S  S  S S  S  S S  S  S  S  S  S S  S S S  
--------------------|--------------------------------------------|
--------------------|--------------------------------------------|
--------------------|--------------------------------------------|
--------------------|--------------------------------------------|
--5\----------------|--0--0--1-0--0--2-0--0--0--0--0--1-0--2-1---|
--5-----------------|--0--0--1-0--0--2-0--0--0--0--0--1-0--2-1---|


  PM   PM   PM PM PM PM                                                     
  S  S S  S S  S  S  S  S S S S S S S S    S S S S S S S S S S S S S S S S  
----------------------------------------|----------------------------------|
----------------------------------------|----------------------------------|
----------------------------------------|----------------------------5-----|
----------------------------------------|--0-0-1-0-0-2-0-0-0-0-0-1-0---1---|
--0--1-0--2-0--0--0--0--1-1-0-0---------|----------------------------------|
--0--1-0--2-0--0--0--0----------3-7-5-0-|----------------------------------|


  S S S S S S S S S S S S S E.     S S S S S S S S S S S S S S S S  
--------------------------------|----------------------------------|
--------------------------------|----------------------------------|
--------------------------------|----------------------------------|
--------------------------------|----------------------------------|
--0-0-0-1-0-0-2-0-0-0-0-0-1-----|--------1-----------1-----------1-|
--0-0-0-1-0-0-2-0-0-0-0-0-1-----|--0-1-2---2-1-0-1-2---2-1-0-1-2---|


  S S S S S S S S S S S S S S S S    S S S S S S S S S S S S S S S S  
----------------------------------|----------------------------------|
----------------------------------|----------------------------------|
----------------------------------|----------------------------------|
----------------------------------|----------------------------------|
--------2-----------2-----------2-|--------1-----------1-----------1-|
--1-2-3---3-2-1-2-3---3-2-1-2-3---|--0-1-2---2-1-0-1-2---2-1-0-1-2---|


  S S S S S S S S S S S S S S S S    S S S S S S S S S S S S S S S S  
----------------------------------|----------------------------------|
----------------------------------|----------------------------------|
----------------------------------|----------------------------------|
----------------------------------|----------------------------------|
--------2-----------2-----------2-|--------1-----------1-----------1-|
--1-2-3---3-2-1-2-3---3-2-1-2-3---|--0-1-2---2-1-0-1-2---2-1-0-1-2---|


  S S S S S S S S S S S S S S S S    S S S S S S S S S S S S S S S S  
----------------------------------|----------------------------------|
----------------------------------|----------------------------------|
----------------------------------|----------------------------------|
----------------------------------|----------------------------------|
--------2-----------2-----------2-|--------1-----------1-----------1-|
--1-2-3---3-2-1-2-3---3-2-1-2-3---|--0-1-2---2-1-0-1-2---2-1-0-1-2---|


  S S S S S S S S S S S S S S S S    S S S S S S S S S S S S S S S S  
----------------------------------|----------------------------------|
----------------------------------|----------------------------------|
----------------------------------|----------------------------------|
----------------------------------|----------------------------------|
--------2-----------2-----------2-|--------1-----------1-----------1-|
--1-2-3---3-2-1-2-3---3-2-1-2-3---|--0-1-2---2-1-0-1-2---2-1-0-1-2---|


  S S S S S S S S S S S S S S S S    S S S S S S S S S S S S S S S S  
----------------------------------|----------------------------------|
----------------------------------|----------------------------------|
----------------------------------|----------------------------------|
----------------------------------|----------------------------------|
--------2-----------2-----------2-|--------1-----------1-----------1-|
--1-2-3---3-2-1-2-3---3-2-1-2-3---|--0-1-2---2-1-0-1-2---2-1-0-1-2---|


                                     PM PM   PM PM   PM PM PM PM PM   PM        
  S S S S S S S S S S S S S S S S    S  S  S S  S  S S  S  S  S  S  S S  S S S  
----------------------------------|--------------------------------------------|
----------------------------------|--------------------------------------------|
----------------------------------|--------------------------------------------|
----------------------------------|--------------------------------------------|
--------2-----------2-----------2-|--0--0--1-0--0--2-0--0--0--0--0--1-0--2-1---|
--1-2-3---3-2-1-2-3---3-2-1-2-3---|--0--0--1-0--0--2-0--0--0--0--0--1-0--2-1---|


  PM   PM   PM PM PM PM                                                     
  S  S S  S S  S  S  S  S S S S S S S S    S S S S S S S S S S S S S S S S  
----------------------------------------|----------------------------------|
----------------------------------------|----------------------------------|
----------------------------------------|----------------------------5-----|
----------------------------------------|--0-0-1-0-0-2-0-0-0-0-0-1-0---1---|
--0--1-0--2-0--0--0--0--1-1-0-0---------|----------------------------------|
--0--1-0--2-0--0--0--0----------3-7-5-0-|----------------------------------|


                                   PM PM   PM PM   PM PM PM PM PM   PM        
  S S S S S S S S S S S S S E.     S  S  S S  S  S S  S  S  S  S  S S  S S S  
--------------------------------|--------------------------------------------|
--------------------------------|--------------------------------------------|
--------------------------------|--------------------------------------------|
--------------------------------|--------------------------------------------|
--0-0-0-1-0-0-2-0-0-0-0-0-1-----|--0--0--1-0--0--2-0--0--0--0--0--1-0--2-1---|
--0-0-0-1-0-0-2-0-0-0-0-0-1-----|--0--0--1-0--0--2-0--0--0--0--0--1-0--2-1---|


  PM   PM   PM PM PM PM                  
  S  S S  S S  S  S  S  S S S S S S S S  
----------------------------------------|
----------------------------------------|
----------------------------------------|
----------------------------------------|
--0--1-0--2-0--0--0--0--1-1-0-0---------|
--0--1-0--2-0--0--0--0----------3-7-5-0-|


  PM PM   PM PM   PM PM PM PM PM   PM        
  S  S  S S  S  S S  S  S  S  S  S S  S S S  
--------------------------------------------|
--------------------------------------------|
--------------------------------------------|
--------------------------------------------|
--0--0--1-0--0--2-0--0--0--0--0--1-0--2-1---|
--0--0--1-0--0--2-0--0--0--0--0--1-0--2-1---|


  PM   PM   PM PM PM PM                          
  S  S S  S S  S  S  S  S S S S S S S S          
----------------------------------------|------||
----------------------------------------|------||
----------------------------------------|------||
----------------------------------------|------||
--0--1-0--2-0--0--0--0--1-1-0-0---------|------||
--0--1-0--2-0--0--0--0----------3-7-5-0-|------||




Duration Legend
---------------
W - whole
H - half
Q - quarter
E - 8th
S - 16th
T - 32nd
X - 64th
. - note dotted
|-n-|  - n-tuplets


Tablature Legend
----------------
L - tied note
x - dead note
g - grace note
(n) - ghost note
> - accentuded note
NH - natural harmonic
AH - artificial harmonic
TH - tapped harmonic
SH - semi harmonic
PH - pitch harmonic
h - hammer on
p - pull off
b - bend
br - bendRelease
pb - preBend
pbr - preBendRelease
brb - bendReleaseBend
\n/ - tremolo bar dip
\n - tremolo bar dive
-/n - tremolo bar Release up
/n\ - tremolo bar inverted dip
/n - tremolo bar return
-\n - tremolo bar Release down
S - shift slide
s - legato slide
/ -  slide into from below or out of upwards
\ -  slide into from above or out of downwards
~ - vibrato
W - wide vibrato
tr - trill
TP - tremolo picking
T - tapping
S - slap
P - pop
< - fade in
^ - brush up
v - brush down

            
            
Suggest correction
Creating personal tab
Creating personal tab
You can edit any tab online and save it as your Personal.

You can edit, replace or remove any tab part or add personal notes – all changes will be seen only by you.

Personal tabs can be accessed anytime from any device, even offline.
Learn more »
Give kudos to tab author, rate the tab!
1 2 3 4 5
comments
print report bad tab
guest
You may want to rate the tab now too:
select rating
Wanna post a correction for this tab? Suggest correction