Oops, an error
Loading. Please wait.

Bad Judgment - Enoughs Enough Bass Tab

90 views 1 this week
no commentswrite comment
1 2 3 4 5
please rate
add to favorites
launch autoscroll
font size
0
reset
guitar tuner
Autoscroll
slow
fast
+/-
esc
set tempo
stop
Help us to improve Ultimate-Guitar.com Take our survey!
×
Author
Enough's Enough
Bad Judgment
Tuning Drop C (C G C F)
Basically Just for Alex's Viewing Pleasure
If you stumble upon it and you're not Alex, just exit out.

Did the best i could bro. haha 


|----------------|----------------|----------------|----------------|
|----------------|----------------|----------------|----------------|
|----------------|----------------|----------------|----------------|
|----------------|----------------|----------------|----------------|x2

|----------------|----------------|----------------|----------------|
|----------------|----------------|----------------|----------------|
|----------------|----------------|----------------|----------------|
|0---0-----------|----------------|0---0-----------|----------------|x2


||----------------|----------------|----------------|----------------|
||----------------|----------------|----------------|----------------|
||----------------|----------------|----------------|----------------|
||0---0-0-3-0---0-|--0---0-3-------|0---0-0-3-0---0-|--0---0-3-5-----|

|----------------|----------------|----------------|----------------||
|----------------|----------------|----------------|----------------||
|----------------|----------------|----------------|--5-3-----------||
|0---0-0-3-0---0-|--0---0-3-------|0---0-0-3-0---0-|------6-5-3-----||x2


||----------------|----------------|----------------|----------------|
||----------------|----------------|----------------|----------------|
||----------------|----------------|----------------|----------------|
||0-------3-------|0-------6-5-3---|----0-0-3-0---0-|----0-0-5-6-----|

|----------------|----------------|----------------|----------------||
|----------------|----------------|----------------|----------------||
|----------------|----------------|----------------|----------------||
|0-------3-------|0-------6-5-3---|0-0-0-0-3-0---0-|----0-------0-0-||x2


||----------------|----------------|----------------|----------------|
||----------------|----------------|----------------|----------------|
||----------------|----------------|----------------|----------------|
||6-------0---0---|----0---0-0-0---|----0-0-3-0---0-|----0-0-----0-0-|

|----------------|----------------|----------------|----------------||
|----------------|----------------|----------------|----------------||
|----------------|----------------|----------------|----------------||
|6-------0---0---|----0-0-3-0---0-|----0-0-3-0---0-|----0-------0-0-||x2

|----------------|----------------|----------------|----------------|
|----------------|----------------|----------------|----------------|
|3-----------3---|--------5-------|----3-----------|----------------|
|------5---------|--5-----------5-|----------5-----|3-5-------------|

|----------------|----------------|----------------|----------|
|----------------|----------------|----------------|----------|
|3-----------5---|--------3-------|----------------|----------|
|------5---------|--5-----------5-|--6-5-3-0-------|----------|
                                                   (Time Sig: 5/8) 

|----------------|----------------|----------------|----------------|
|----------------|----------------|----------------|----------------|
|----------------|----------------|----------------|----------------|
|0-------3-------|0-------6-5-3---|----0-0-3-0---0-|----0-0-5-6-----|

|----------------|----------------|----------------|----------------|
|----------------|----------------|----------------|----------------|
|----------------|----------------|----------------|----------------|
|0-------3-------|0-------6-5-3---|0-0-0-0-3-0---0-|----0-------0-0-|


||----------------|----------------|----------------|----------------|
||----------------|----------------|----------------|----------------|
||----------------|----------------|----------------|----------------|
||6-------0---0---|----0---0-0-0---|----0-0-3-0---0-|----0-0-----0-0-|

|----------------|----------------|----------------|----------------||
|----------------|----------------|----------------|----------------||
|----------------|----------------|----------------|----------------||
|6-------0---0---|----0-0-3-0---0-|----0-0-3-0---0-|----0-------0-0-||x2

|----------------|----------------|----------------|----------------|
|----------------|----------------|----------------|----------------|
|3-----------3---|--------5-------|----3-----------|----------------|
|------5---------|--5-----------5-|----------5-----|3-5-------------|

|----------------|----------------|----------------|----------|
|----------------|----------------|----------------|----------|
|3-----------5---|--------3-------|----------------|----------|
|------5---------|--5-----------5-|--6-5-3-0-------|----------|
                                                   (Time Sig: 5/8) 

||----------------|----------------|----------------|----------------|
||----------------|----------------|----------------|----------------|
||----------------|----------------|----------------|----------------|
||0-------3-------|0-------6-5-3---|----0-0-3-0---0-|----0-0-5-6-----|

|----------------|----------------|----------------|----------------||
|----------------|----------------|----------------|----------------||
|----------------|----------------|----------------|----------------||
|0-------3-------|0-------6-5-3---|0-0-0-0-3-0---0-|----0-------0-0-||x2

|----------------|----------------|----------------|----------------|
|----------------|----------------|----------------|----------------|
|----------------|----------------|----------------|----------------|
|0---0-0-3-0---0-|--------3-------|0---0-0-3-0---0-|--0---0-3-5-----|

|----------------|----------------|----------------|----------------|
|----------------|----------------|----------------|----------------|
|----------------|----------------|----------------|--5-3-----------|
|0---0-0-3-0---0-|--0---0-3-------|0---0-0-3-0---0-|------6-5-3-----|

|----------------|----------------|----------------|----------------|
|----------------|----------------|----------------|----------------|
|----------------|----------------|----------------|----------------|
|0---0-0-3-0---0-|--0---0-3-------|0---0-0-3-0---0-|--0---0-3-5-----|

|----------------|----------------|----------------|----------------|
|----------------|----------------|----------------|----------------|
|----------------|----------------|----------------|--5-3-----------|
|0---0-0-3-0---0-|--0---0-3-------|0---0-0-3-0---0-|------6-5-3-----|

|----------------|----------------|----------------|----------------|
|----------------|----------------|----------------|----------------|
|----------------|----------------|----------------|----------------|
|2---2-2-5-2---2-|--2---2-5-------|2---2-2-5-2---2-|--2---2-5-7-----|

|----------------|----------------|----------------|----------------|
|----------------|----------------|----------------|----------------|
|----------------|----------------|----------------|--7-5-----------|
|2---2-2-5-2---2-|--2---2-5-------|2---2-2-5-2---2-|------8-7-5-----|

||----------------|----------------|----------------|----------------|
||----------------|----------------|----------------|----------------|
||----------------|----------------|----------------|----------------|
||0---0-0-3-0---0-|--0---0-3-------|0---0-0-3-0---0-|--0---0-3-5-----|

|----------------|----------------|----------------|----------------||
|----------------|----------------|----------------|----------------||
|----------------|----------------|----------------|--5-3-----------||
|0---0-0-3-0---0-|--0---0-3-------|0---0-0-3-0---0-|------6-5-3-----||x3


|----------------|----------------|----------------|----------------|
|----------------|----------------|----------------|----------------|
|3-----------3---|--------5-------|----3-----------|----------------|
|------5---------|--5-----------5-|----------5-----|3-5-------------|

|----------------|----------------|----------------|----------|
|----------------|----------------|----------------|----------|
|3-----------5---|--------3-------|----------------|----------|
|------5---------|--5-----------5-|--6-5-3-0-------|----------|
                                                   (Time Sig: 5/8) 
|----------------|----------------|----------------|----------------|
|----------------|----------------|----------------|----------------|
|3-----------5---|--------3-------|----3-----------|----------------|
|------5---------|--5-----------5-|----------5-----|3-5-------------|

|----------------|----------------|----------------|----------|
|----------------|----------------|----------------|----------|
|3-----------5---|--------3-------|----------------|----------|
|------5---------|--5-----------5-|6-5-3-0---------|----------|
                                                   (Time Sig: 5/8) 



||----------------|----------------|----------------|----------------|
||----------------|----------------|----------------|----------------|
||----------------|----------------|----------------|----------------|
||6-------0---0---|----0---0-0-0---|----0-0-3-0---0-|----0-0-----0-0-|

|----------------|----------------|----------------|----------------||
|----------------|----------------|----------------|----------------||
|----------------|----------------|----------------|----------------||
|6-------0---0---|----0-0-3-0---0-|----0-0-3-0---0-|----0-------0-0-||x2

|----------------|----------------|----------------|----------------|
|----------------|----------------|----------------|----------------|
|3-----------3---|--------5-------|----3-----------|----------------|
|------5---------|--5-----------5-|----------5-----|3-5-------------|

|----------------|----------------|----------------|----------|
|----------------|----------------|----------------|----------|
|3-----------5---|--------3-------|----------------|----------|
|------5---------|--5-----------5-|--6-5-3-0-------|----------|
                                                   (Time Sig: 5/8) 

|----------------|----------------|----------------|----------------|
|----------------|----------------|----------------|----------------|
|3-----------5---|--------3-------|----3-----------|----------------|
|------5---------|--5-----------5-|----------5-----|3-5-------------|

|----------------|----------------|----------------|----------|
|----------------|----------------|----------------|----------|
|3-----------5---|--------3-------|----------------|----------|
|------5---------|--5-----------5-|--6-5-3-0-------|----------|
                                                   (Time Sig: 5/8) 

||----------------|----------------|----------------|----------------|
||----------------|----------------|----------------|----------------|
||----------------|----------------|----------------|----------------|
||0-------3-------|0-------6-5-3---|----0-0-3-0---0-|----0-0-5-6-----|

|----------------|----------------|----------------|----------------||
|----------------|----------------|----------------|----------------||
|----------------|----------------|----------------|----------------||
|0-------3-------|0-------6-5-3---|0-0-0-0-3-0---0-|----0-------0-0-||x4


||----------------|----------------||
||----------------|----------------||
||----------------|--5-3-----------||
||0---0-0-3-0---0-|------6-5-3-----||x4
Suggest correction
What's this?
You can suggest a correction to this tab. Community and Mods will review your correction and vote to approve or reject it.
comments
We did not receive enough feedback on this tab! Please rate:
print report bad tab
1 2 3 4 5
guest
You may want to rate the tab now too:
select rating
Please do not post tabs as comments. Select "correction" instead!