Oops, an error
Loading. Please wait.

Baddies - Battleships Bass Tab

273 views 1 this week
no commentswrite comment
1 2 3 4 5
please rate
add to favorites
launch autoscroll
font size
0
reset
guitar tuner
Autoscroll
slow
fast
+/-
esc
set tempo
stop
Help us to improve Ultimate-Guitar.com Take our survey!
×
Author
Artist : Baddies
Song   : Battleships
Album  : Battleships Single
Tabbed By Rob Price

Amazing Song. Amazing Band. Didn't post a structure as its dead simple, feel free to 
Stereopricey@hotmail.com

Intro (Whoo Whoo Whoo...)
G---------|
D---------|
A---------|
E-33-33-3-|

Verse Riff
G--------------------------------------|
D--------------------------------------|
A--------------------------------------|
E-6--3-5-3-6--0--3-5-3-6--3-5-3-6--0-0-|

G------------------------------------------------------------|
D------------------------------------------------------------|
A--------------------------------------------4-4-4-4-4-4-4-4-|
E-3-5-3-6--3-5-3-6--0-0--12\-3-3-3-3-3-3-3-3-----------------|

Chorus
G-----------------------------------------------------------------|
D-----------------------------------------------------------------|
A-7-7-7-7-7-7-7-7-7-7-7-7-7-7-7-7-4-4-4-4-4-4-4-4-----------------|
E-------------------------------------------------3-3-3-3-3-3-3-3-|

G--------------------------------------------------------|
D---------------------5--5h7-5---------------------------|
A-7-7-7-7-7-7-7-7-7-7---7------7-4-4-4-4-4-4-4-4---------|
E------------------------------------------------33-33-3-|

Bridge
G-------------------------------------|
D-------------------------------------|
A-------------------------------------|
E-6~-000~--555--0~---6~-000~--555--0~-|

G-------------------------------|
D-------------------------------|
A-------------------------------|
E-1-1-1-1-1-1-1-1-6-6-6-6-6-6-6-|

Finish (Whoo Whoo Whoo...)
G---------|
D---------|
A---------|
E-33-33-3-|
Suggest correction
Give kudos to tab author, rate the tab!
1 2 3 4 5
comments
print report bad tab
guest
You may want to rate the tab now too:
select rating
Wanna post a correction for this tab? Suggest correction