Oops, an error
Loading. Please wait.

Bananaband - Rock Off Like Its 2006 Bass Tab

version 1
version 1

Whole song

Interactive

56 views 1 this week
no commentswrite comment
1 2 3 4 5
3 more votes to show rating
add to favorites
launch autoscroll
font size
0
reset
guitar tuner
Autoscroll
slow
fast
+/-
esc
set tempo
stop
Help us to improve Ultimate-Guitar.com Take our survey!
×
Author
Bass in Bananaband's  ROCK OFF LIKE ITS 2006

Banana bass
                                                                        
G||---------------------------------|----------------------------------|
D||---------------------------------|----------------------------------|
A||---------------------------------|----------------------------------|
D||--3-3-1-1-x-x-x-x-1----2----3----|--3-3-3-3-0-0-0-0-2-2-2-2-0-1-2-2-|


                                                                     
---------------------------------|----------------------------------|
---------------------------------|----------------------------------|
---------------------------------|----------------------------------|
--3-3-1-1-x-x-x-x-1----2----3----|--3-3-3-3-0-0-0-0-2-2-2-2-0-1-2-2-|


                                                                     
---------------------------------|----------------------------------|
---------------------------------|----------------------------------|
---------------------------------|----------------------------------|
--3-3-1-1-x-x-x-x-1----2----3----|--3-3-3-3-0-0-0-0-2-2-2-2-0-1-2-2-|


                                                                     
---------------------------------|----------------------------------|
---------------------------------|----------------------------------|
---------------------------------|----------------------------------|
--3-3-1-1-x-x-x-x-1----2----3----|--3-3-3-3-0-0-0-0-2-2-2-2-0-1-2-2-|


                                                                             
-----------------------|----------------------|----------------------|------|
-----------------------|----------------------|----------------------|------|
-----------------------|----------------------|----------------------|------|
--3----10----9----8----|--7----6----5----4----|--3----3----3----3----|------|


                                                       
------|------|------|---------------------------------|
------|------|------|---------------------------------|
------|------|------|---------------------------------|
------|------|------|--3-3-1-1-x-x-x-x-1----2----3----|


                                                                     
----------------------------------|---------------------------------|
----------------------------------|---------------------------------|
----------------------------------|---------------------------------|
--3-3-3-3-0-0-0-0-2-2-2-2-0-1-2-2-|--3-3-1-1-x-x-x-x-1----2----3----|


                                                              
----------------------------------|--------------------------|
----------------------------------|--------------------------|
----------------------------------|--------------------------|
--3-3-3-3-0-0-0-0-2-2-2-2-0-1-2-2-|--3--3--3--3--3--3--3--3--|

END WITH THIS BASS CHORD AS HARD AS POSSIBLE, IT WILL BLOW THE AUDIENCE AWAY
                                        
--5~---------------|------------------||
--3~---------------|------------------||
--3----------------|------------------||
--3~---------------|------------------||


Suggest correction
Give kudos to tab author, rate the tab!
1 2 3 4 5
comments
print report bad tab
guest
You may want to rate the tab now too:
select rating
Wanna post a correction for this tab? Suggest correction