Oops, an error
Loading. Please wait.

Bankrupt - Five Kinds Of Crazy Tab

50 views 1 this week
no commentswrite comment
1 2 3 4 5
please rate
add to favorites
launch autoscroll
font size
0
reset
how to read this tab
guitar tuner
Tab Pro tools
  • play this tab
  • loop segment
  • change instrument
  • show fretboard
  • metronome
×
Best way to learn
"Bankrupt - Five Kinds Of Crazy"
Autoscroll
slow
fast
+/-
esc
set tempo
stop
Contributor
Difficulty
intermediate
Bankrupt - Five Kinds of Crazy

Tabbist: Robin Wakerell
E-Mail: guitar_crazed_moron@hotmail.com

Tuning: Standard

Verse
e|----------------------------------------------|
B|----------------------------------------------|
G|-2-2------------------------------------------|
D|-2-2-(x9)-5-5------5-5------2-2------5-5------|
A|-0-0------5-5-(x9)-5-5-(x9)-2-2-(x4)-5-5-(x4)-|
E|----------3-3------2-2------0-0------3-3------|
P.M  .        .        .        .        .

Pre-Chorus
 Fig. 1
e|-------------------------------------------------|
B|-------------------------------------------------|
G|-2--2--------------------------------------------|
D|-2--2------------------------0-------2h3p2-------|
A|-0--0----2h3-2---2h3-2---2h3---3-2h3-------3-2---|
E|------3b-------3-------3-----------------------3-|

 Fig. 2
e|-----2-3-2---3-2-|
B|-----3-3-3---3-3-|
G|-2---2-0-0---0-2-|
D|-2---0---------0-|
A|-0---------------|
E|-----------------|

Chorus
e|-22232202--------22232202-----------|
B|-33333333--------33333333-----------|
G|-22222222-2------22222222-2---------|
D|----------2---------------2---------|
A|----------0---------------0-0-3b2b0-|
E|------------3b----------------------|

Bridge
e|----0-----0-----0-----0-----0-----0-----------|
B|----0-----0-----0-----0-----0-----0-----------|
G|-2--2--2--2-----0-----0-----0-----0-----------|
D|-2-----2-----5-----5-----5-----5-----4444---2-|
A|-0-----0-----5-----5-----5-----5-----4444---2-|
E|-------------3-----3-----2-----2-----2222---0-|

Solo
e|-----------------------------------5----------------|
B|-3-3------4-5-4-5-5------5-4-5-5/7---7-5/7/8/7b/10b-|
G|-2-2------4-4-4-4-4-(x3)-4-4-4----------------------|
D|-2-2-(x3)-4-----4-4---------------------------------|
A|-0-0------------------------------------------------|
E|----------------------------------------------------|

e|-------5h7p5-(x-)-------7hp7-(x-)-10b-10/12b---12-10-9-----------|
B|-5h7p5-------(-4)-7h9p7------(-3|----------------------10/12-12b-|
G|-----------------------------------------------------------------|
D|-----------------------------------------------------------------|
A|-----------------------------------------------------------------|
E|-----------------------------------------------------------------|

Order:
Verse x4
Prechorus Fig. 1 x2, then Fig.2
Chorus x2
Bridge
Verse x3
Prechorus Fig. 1 x2, then Fig.2
Chorus x2
Bridge
Solo
Prechorus Fig. 1 x2, then Fig.2
Chorus x2
Bridge

Legend: b - bend
        h - hammer
        p - pull off
        / - slide
      P.M - palm mute
comments
We did not receive enough feedback on this tab! Please rate:
print report bad tab
1 2 3 4 5
I want to post or [tab]
guest
You may want to rate the tab now too:
select rating
Please do not post tabs as comments. Select "correction" instead!