Oops, an error
Loading. Please wait.

Banyuhay Ni Heber - Istambay Bass Tab

3,172 views 1 this week
no commentswrite comment
1 2 3 4 5
please rate
add to favorites
launch autoscroll
font size
0
reset
guitar tuner
Autoscroll
slow
fast
+/-
esc
set tempo
stop
Help us to improve Ultimate-Guitar.com Take our survey!
×
Author
Intro:
  					    1.________  2.________
G|-----|----------|----------|------------|----------||---------|
D|o----|----------|----------|------------|---------o||---------|
A|o--5-|-7---7--7-|-5---5--2-|-3---33-2-0-|-2---257-o||-------7-|
E|--7--|---7---7--|---5---5--|---3--------|----------||-0---07--|

Verse I:
					  1._________ 2._________
G|-------------|-----------|-----------|-----------||----------|
D|o-5----55----|---------5-|-7---------|----------o||----------|
A|o---5-----87-|-5---55-7--|---7-----5-|-7---7--5-o||-7---77---|
E|-------------|---5-------|-----5-7---|---7---7---||---7---75-|

G|-----------|------7754-|----------|-------|
D|-----------|---47------|-7---7754-|-------|
A|----5----3-|-55--------|----------|-7---7-|
E|-33---335--|-----------|---5------|---7---|

Chorus:
   				       1._____________  2._______
G|-----------|----------|------------|---------------||---------|
D|o----------|----------|------------|--------------o||---------|
A|o-7---7--7-|-5---5--2-|-3---33-2-0-|-2---257----5-o||-------7-|
E|----7---7--|---5---5--|---3--------|-----------7---||-0---07--|

Verse II: Repeat Verse I pattern

Chorus: Repeat Chorus pattern

Verse III: 

G|------------|-----------|-----------|----------|
D|-5----55----|---------5-|-7---------|----------|
A|---5-----87-|-5---55-7--|---7-----5-|-7---7--5-|
E|------------|---5-------|-----5-7---|---7---7--|

Chorus: Repeat Chorus pattern 3x

Outro:

G|----|----------|----------|------------|---------|
D|----|----------|----------|------------|---------|
A|--5-|-7---7--7-|-5---5--2-|-3---33-2-0-|-2---257-|
E|-7--|---7---7--|---5---5--|---3--------|---------|

G|----|----------|----------|------------|---------|
D|----|----------|--4-7-4---|------------|---------|
A|--5-|-7---7--7-|-5-5-5-75-|-3---33-2-0-|-2---257-|
E|-7--|---7---7--|----------|---3--------|---------|

Ayoko na ng inuman!

http://www.geocities.com/heberbartolome/
Suggest correction
Give kudos to tab author, rate the tab!
1 2 3 4 5
comments
print report bad tab
guest
You may want to rate the tab now too:
select rating
Wanna post a correction for this tab? Suggest correction