Oops, an error
Loading. Please wait.

Barefoot Truth - Walk Softly Tab

1,043 views 1 this week
1 commentread comment
1 2 3 4 5
2 more votes to show rating
add to favorites
launch autoscroll
font size
0
reset
how to read this tab
guitar tuner
Autoscroll
slow
fast
+/-
esc
set tempo
stop
Help us to improve Ultimate-Guitar.com Take our survey!
×
Author
Difficulty
advanced
Walk Softly
Barefoot Truth
Tabbed By Rusty Snow

Great song.. this is just the intro fill and
verse chords which i figured out from watching
their live video

e-----------------------|
B-----------------------|
G----6--5----5----------|
D----------8----8--5----| intro fill
A-----------------------|
E-----------------------|


Intro/Verse

e----3----x----1----x----x----|
B----3----3----1----3----5----|
G----4----3----2----3----5----|
D----5----3----3----2----4----| x2
A----5----x----3----3----5----|
E----3----x----1----x----x----|
     G    A#   F    C9   D9
to play the verse they change just the beginning
a bit so its like this

e----3----|
B----3----|
G----4----|
D----5----| x1  thats right before
A----5----|     break down the borders...
E----3----|
     G
then it uses the C9(no 5th) and D9(no 5th) chords.. you can
hear when jay plays them then it it goes back to the verse
part when they say "we ask the gov..."

im still working on the rest now hope this start helps
email me with the rest or suggest.
stras16@moravian.edu
Suggest correction
Give kudos to tab author, rate the tab!
1 2 3 4 5
comments
print report bad tab
1 comment total.
0 reply
sublime1117 10 Oct 23, 2008 10:39 PM

the intro is

e-------------------------------------------------------------------
B-------------------------------------------------------------------
G--6h5-3-5-3---------3-----------5-5-5-5-3-----3---------5-5-5-5-5-5
D------------5-3-5-5--5-3-3--5-5----------5-5---5-3-3-5-5-----------
A-------------------------------------------------------------------
E-------------------------------------------------------------------

e-------------------------------------------
B-------------------------------------------
G--5/7-3------------------------------------
D------------3---3---3---3-5----------------
A---------3h5-3h5-3h5-3h5-------------------
E--------------------------------------------

guest
You may want to rate the tab now too:
select rating
Wanna post a correction for this tab? Suggest correction