Oops, an error
Loading. Please wait.

Bars - This Is It Tab

58 views 1 this week
no commentswrite comment
1 2 3 4 5
3 more votes to show rating
add to favorites
launch autoscroll
font size
0
reset
how to read this tab
guitar tuner
Autoscroll
slow
fast
+/-
esc
set tempo
stop
Help us to improve Ultimate-Guitar.com Take our survey!
×
Author
http://www.equalvision.com/artists/show/31 
b - bend
/ - slide
h - hammer on

Intro x1
eb|----|
Bb|----|
Gb|----|
Db|-0--|
Ab|-0--|
Db|-0--|

Chorus x1
eb|---------------------------------------------------------------------|
Bb|---------------------------------------------------------------------|
Gb|---------------------------------------------------------------------|
Db|-0-0-0-3--0-3-0-3-5-3---0-0-0-3--0-3-0-3-5-3---0-0-0-3--0-3-0-3-5-3--|
Ab|-0-0-0-3--0-3-0-3-5-3---0-0-0-3--0-3-0-3-5-3---0-0-0-3--0-3-0-3-5-3--|
Db|-0-0-0-3--0-3-0-3-5-3---0-0-0-3--0-3-0-3-5-3---0-0-0-3--0-3-0-3-5-3--|

eb|--------------------|
Bb|--------------------|
Gb|-5-5-5---5-7-7-7-7--|
Db|-5-5-5---5-7-7-7-7--|
Ab|-3-3-3-0-3-5-5-5-5--|
Db|--------------------|

Solo x2 (Play the above twice under this)
eb|---------------------------------------------------------------10-10-10-10--------|
Bb|-10----10----10----------------------10----10----10-------------------------------|
Gb|-12b14-12b14-12b14b12-10-----10h12---12b14-12b14-12b14b12-10---------------10h12--|
Db|-------------------------12----------------------------------12-------------------|
Ab|----------------------------------------------------------------------------------|
Db|----------------------------------------------------------------------------------|

eb|-------------------------------------------------------|
Bb|-10----10----10----------------------------------------|
Gb|-12b14-12b14-12b14b12-10-----10h12---9-9---------------|
Db|-------------------------12-----------------10-12-12---|
Ab|-----------------------------------------12------------|
Db|-------------------------------------------------------|

Verse x2
eb|--------------------------------------------------------------------|
Bb|--------------------------------------------------------------------|
Gb|--------------------------------5/7--7-7-7-7-7-7-7-7-7-7-7-7-7-7-7--|
Db|-0-0-0-0-0-0-0-0-0-0-0-0-0-0-0--5/7--7-7-7-7-7-7-7-7-7-7-7-7-7-7-7--|
Ab|-0-0-0-0-0-0-0-0-0-0-0-0-0-0-0--3/5--5-5-5-5-5-5-5-5-5-5-5-5-5-5-5--|
Db|-0-0-0-0-0-0-0-0-0-0-0-0-0-0-0--------------------------------------|
    . . . . . . . . . . . . . . .       . . . . . . . . . . . . . . . 
eb|------------------------------------------------------------------|
Bb|------------------------------------------------------------------|
Gb|-7/5--5-5-5-5-5-5-5-5-5-5-5-5-5-5-5--5/7-7-7-7-7-7-7-7-7-7-7-7-7--|
Db|-7/5--5-5-5-5-5-5-5-5-5-5-5-5-5-5-5--5/7-7-7-7-7-7-7-7-7-7-7-7-7--|
Ab|-5/3--3-3-3-3-3-3-3-3-3-3-3-3-3-3-3--3/5-5-5-5-5-5-5-5-5-5-5-5-5--|
Db|------------------------------------------------------------------|
         . . . . . . . . . . . . . . .

Chorus x2
eb|---------------------------------------------------------------------|
Bb|---------------------------------------------------------------------|
Gb|---------------------------------------------------------------------|
Db|-0-0-0-3--0-3-0-3-5-3---0-0-0-3--0-3-0-3-5-3---0-0-0-3--0-3-0-3-5-3--|
Ab|-0-0-0-3--0-3-0-3-5-3---0-0-0-3--0-3-0-3-5-3---0-0-0-3--0-3-0-3-5-3--|
Db|-0-0-0-3--0-3-0-3-5-3---0-0-0-3--0-3-0-3-5-3---0-0-0-3--0-3-0-3-5-3--|

eb|--------------------|
Bb|--------------------|
Gb|-5-5-5---5-7-7-7-7--|
Db|-5-5-5---5-7-7-7-7--|
Ab|-3-3-3-0-3-5-5-5-5--|
Db|--------------------|

Bridge x1
eb|-----------------------------------------------|
Bb|-----------------------------------------------|
Gb|-5-----------5--7-----------5-5-5---5-7-7-7-7--|
Db|-5--5--3--0--5--7--5--3--0--5-5-5---5-7-7-7-7--|
Ab|-3--5--3--0--3--5--5--3--0--3-3-3-0-3-5-5-5-5--|
Db|----5--3--0--------5--3--0---------------------|

Solo x2 (Play the chorus twice under this. Second time around use a wah pedal)
eb|---------------------------------------------------------------10-10-10-10--------|
Bb|-10----10----10----------------------10----10----10-------------------------------|
Gb|-12b14-12b14-12b14b12-10-----10h12---12b14-12b14-12b14b12-10---------------10h12--|
Db|-------------------------12----------------------------------12-------------------|
Ab|----------------------------------------------------------------------------------|
Db|----------------------------------------------------------------------------------|

eb|-------------------------------------------------------|
Bb|-10----10----10----------------------------------------|
Gb|-12b14-12b14-12b14b12-10-----10h12---9-9---------------|
Db|-------------------------12-----------------10-12-12---|
Ab|-----------------------------------------12------------|
Db|-------------------------------------------------------|

End x1
eb|------------------------------------------------------------------------|
Bb|-----------------------------------------------------15-15-15-15-15-15--|
Gb|-9-9---------------9-9---------------9-9--------------------------------|
Db|--------10-12-12----------10-12-12----------10-12-12-12-12-12-12-12-12--|
Ab|-----12----------------12----------------12-----------------------------|
Db|------------------------------------------------------------------------|
Suggest correction
Give kudos to tab author, rate the tab!
1 2 3 4 5
comments
print report bad tab
guest
You may want to rate the tab now too:
select rating
Wanna post a correction for this tab? Suggest correction