Oops, an error
Loading. Please wait.

Bartek Krolik - Funk Bass Slap Bass Tab

24,562 views 9 this week
3 commentsread comments
1 2 3 4 5
excellent!
x 6
add to favorites
launch autoscroll
font size
0
reset
guitar tuner
Autoscroll
slow
fast
+/-
esc
set tempo
stop
Help us to improve Ultimate-Guitar.com Take our survey!
×
Author
Difficulty
advanced
Tabbed By : Walkin'Basser (YouTube user: BassThrasher)
e-mail: danielkolko@gmail.com

Tuning: standard

This is a song taken from the CD "No Bass No Fun", directed by Wojtek Pilichowski, which 
several solo bass artists.
I don't own the CD, nor I know the actual name of this song. All I know that it is 
by Bartek Królik.
I've transcribed the song by listening to this video:
http://www.youtube.com/watch?v=1HZtcW3MP1s#BAO7-cMy7R4

   S  S  P      S S S S S S S S P S P   S S S S S S
G|-------9h12-------------------------------------------|
D|-9--12------------------------------------------------|   X2
A|----------------------4-5-5---5---5h7---------4-5-----|
E|--------------0-0-7-x-------x---x-----0-0-7-x---------|


   S  S  P      S S S S S S S S P P S   S S S  S  S    P    S    P
G|-------9h12------------------------------------------9h12------9h12p9-|
D|-9--12----------------4-5-5---5-5---------------9h12------9h12--------|
A|--------------0-0-7-x-------x-----7---0-0-7--12-----------------------|
E|----------------------------------------------------------------------|

    S S S S S S S S P S P   S S S S S S S S P P
G|--------------------------------------------------|
D|--------------------------------------------------|
A|----------4-5-5---5---5h7---------4-5-5---5-5-----|
E|--0-0-7-x-------x---x-----0-0-7-x-------x---------| }
                                                       }
                                                        } X2
    S S S S S S         S  P   S   P S   S P           }
G|---------------17/18-----7h9-----7-------7h9------| }
D|---------------16/17---------7h9---9p7------------|
A|----------------------0----------------7----------|
E|--7-0-6-0-5-5-------------------------------------|


    S S S S S S S S P S P   S     S S  P  S S  P
G|-----------------------------------------------------|
D|-------------------------------------11--------------|
A|----------4-5-5---5---5h7--------------------10p7----|
E|--0-0-7-x-------x---x-----0-----9-9-----9-10---------|


The same riffs repeat, with some licks added in. I'll just
tab the licks. Figure out what parts to repeat and where to throw in
these licks (they're tabbed in the same line but they're not played one after the other).

   S  P  P  S  P  S P   S    S  P  P  P  P P  P  S   S  S    P    S    P    T
G|-------------------------|----12-12-11-9---------|---------9h12------9h12-21-|
D|----12-12----12----------|---------------12-11---|-x--9h12------9h12---------|
A|------------------5h7----|-10------------------0-|---------------------------|
E|-10-------10----7-----0--|-----------------------|---------------------------|

I don't have a clue how he does that part @ 1:04. I think he
does some two handed tapping and then throws in some slapping in between.
I also think he uses some kind of effect in this part.
Anyway, after that it's basically the same as before.


| S  slap
| P  pop
| T  tap
| /  slide up
| \  slide down
| h  hammer-on
| p  pull-off
| ~  vibrato
| +  harmonic
| x  Mute note
===============================================================================
Suggest correction
comments
print report bad tab
3 comments total.
+1 reply
GATW 10 wrote on January 13 2008, 07:18 pm

Hay mate! Nice tab dude! I saw your comment on the YouTube vid! So I checked this out. Sweet as dude.

0 reply
Diffy 10 wrote on January 19 2008, 03:37 pm

Unfortunately I have to say that this tab is... er... absolutely wrong ;) (well except of the first four notes...)

0 reply
megaluisdeth 177 wrote on March 14 2009, 02:15 am

makes me feel like a bass player

guest
You may want to rate the tab now too:
select rating
Wanna post a correction for this tab? Suggest correction