Oops, an error
Loading. Please wait.

Basket Trio - Child With A Gun Tab

7 views 1 this week
no commentswrite comment
1 2 3 4 5
2 more votes to show rating
add to favorites
launch autoscroll
font size
0
reset
how to read this tab
guitar tuner
Autoscroll
slow
fast
+/-
esc
set tempo
stop
Help us to improve Ultimate-Guitar.com Take our survey!
×
Author
Difficulty
novice
About this tab version
Basket Trio is an American punk rock band, this is the intro to their song Child with a gun. Was this info helpful? Yes No
[Intro]

e|---------------------------------------------------------|
B|---------------------------------------------------------|
G|---------------------------------------------------------|
D|9-9-9-9-9-9-9-9--7-7-7-7-7-7-7-7-------------------------|
A|7-7-7-7-7-7-7-7--5-5-5-5-5-5-5-5--9-9-9-9-9-9-9-9-7-10-9-|
E|0-0-0-0-0-0-0-0--0-0-0-0-0-0-0-0--7-7-7-7-7-7-7-7-5--8-7-|

e|---------------------------------------------------------|
B|---------------------------------------------------------|
G|---------------------------------------------------------|
D|9-9-9-9-9--7-7-7-7-7-------------------------------------|
A|7-7-7-7-7--5-5-5-5-5--9-9-9-9-9-7-10-9-------------------|
E|0-0-0-0-0--0-0-0-0-0--7-7-7-7-7-5--8-7-------------------|
Suggest correction
Give kudos to tab author, rate the tab!
1 2 3 4 5
comments
print report bad tab
guest
You may want to rate the tab now too:
select rating
Wanna post a correction for this tab? Suggest correction