Oops, an error
Loading. Please wait.

Bass Mads - Sunshine Bass Tab

229 views 1 this week
no commentswrite comment
1 2 3 4 5
3 more votes to show rating
add to favorites
launch autoscroll
font size
0
reset
guitar tuner
Autoscroll
slow
fast
+/-
esc
set tempo
stop
Help us to improve Ultimate-Guitar.com Take our survey!
×
Author
Difficulty
novice
-------------------------------------------------------------------------------
			     Sunshine - Bass Mads(c)
-------------------------------------------------------------------------------

Tabbed By : Bass Mads
e-mail: Ask me in my profile

Note:
Play the song in the rythm you want to..
Use your thumb at the D string or for the string closest to E!! And your first finger 
the other tones!

Tuning: Normal E
Riff 1 x2
G|----9--9--9----7--7--7----5--5--5------------------------------------------|
D|--7--7--7----5--5--5----3--3--3------7--7--7-------------------------------|
A|-----------------------------------5--5--5---------------------------------|
E|---------------------------------------------------------------------------|
Riff 2
G|----7--7--7----5--5--5----3--3--3------------------------------------------|
D|--9--9--9----7--7--7---5--5--5-------7--7--7-------------------------------|
A|-----------------------------------5--5--5---------------------------------|
E|---------------------------------------------------------------------------|
Riff 3
G|----9--9--9----5--5--5----5--5--5------------------------------------------|
D|--7--7--7----7--7--7----3--3--3------7--7--7-------------------------------|
A|-----------------------------------5--5--5---------------------------------|
E|---------------------------------------------------------------------------|
Final Riff(Riff 1)
G|----9--9--9----7--7--7----5--5--5------------------------------------------|
D|--7--7--7----5--5--5----3--3--3--------------------------------------------|
A|-----------------------------------5---------------------------------------|
E|---------------------------------------------------------------------------|

| /  slide up
| \  slide down
| h  hammer-on
| p  pull-off
| ~  vibrato
| +  harmonic
| x  Mute note
===============================================================================
Suggest correction
Give kudos to tab author, rate the tab!
1 2 3 4 5
comments
print report bad tab
guest
You may want to rate the tab now too:
select rating
Wanna post a correction for this tab? Suggest correction