Oops, an error
Loading. Please wait.

Battery - Move On Tab

1 view 1 this week
no commentswrite comment
1 2 3 4 5
3 more votes to show rating
add to favorites
launch autoscroll
font size
0
reset
how to read this tab
guitar tuner
Autoscroll
slow
fast
+/-
esc
set tempo
stop
Help us to improve Ultimate-Guitar.com Take our survey!
×
Author
Difficulty
intermediate
[Intro]
E|---------------------------------------------------------------------------|
B|---------------------------------------------------------------------------|
G|---------------------------------------------------------------------------|
D|--4----4----4----4---------------------------------------------------------|
A|--4----4----4----4---------------------------------------------------------|
E|--2----2----2----2---------------------------------------------------------|

[Verse]
E|---------------------------------------------------------------------------|
B|---------------------------------------------------------------------------|
G|---------------7--6--4--9-9-9-----------------7--6--4--6--4--2-------------|
D|--4-4-4-4-4-4--7--6--4--9-9-9----4-4-4-4-4-4--7--6--4--6--4--2-------------| x4
A|--4-4-4-4-4-4--5--4--2--7-7-7----4-4-4-4-4-4--5--4--2--4--2--0-------------|
E|--2-2-2-2-2-2--------------------2-2-2-2-2-2-------------------------------|
                                                .  .  .  .  .  .

[Chorus]
E|---------------------------------------------------------------------------|
B|---------------------------------------------------------------------------|
G|--4-4-4-4-----------9-------------------------4-4-4-4----------------------|
D|--4-4-4-4--4-4-4-4--9--7-7-7-7--5-7-7-5-7-7---4-4-4-4--4-4-4-4--7-7-7-7----|
A|--2-2-2-2--4-4-4-4--7--7-7-7-7--5-7-7-5-7-7---2-2-2-2--4-4-4-4--7-7-7-7----|
E|-----------2-2-2-2-----5-5-5-5--3-5-5-3-5-5------------2-2-2-2--5-5-5-5----|

E|---------------------------------------------------------------------------|
B|---------------------------------------------------------------------------|
G|--7--6--4--6--4--2---------------------------------------------------------|
D|--7--6--4--6--4--2---------------------------------------------------------|
A|--5--4--2--4--2--0---------------------------------------------------------|
E|---------------------------------------------------------------------------|

[Verse]
E|---------------------------------------------------------------------------|
B|---------------------------------------------------------------------------|
G|---------------7--6--4--9-9-9-----------------7--6--4--6--4--2-------------|
D|--4-4-4-4-4-4--7--6--4--9-9-9----4-4-4-4-4-4--7--6--4--6--4--2-------------| x4
A|--4-4-4-4-4-4--5--4--2--7-7-7----4-4-4-4-4-4--5--4--2--4--2--0-------------|
E|--2-2-2-2-2-2--------------------2-2-2-2-2-2-------------------------------|
                                                .  .  .  .  .  .

[Chorus]
E|---------------------------------------------------------------------------|
B|---------------------------------------------------------------------------|
G|--4-4-4-4-----------9-------------------------4-4-4-4----------------------|
D|--4-4-4-4--4-4-4-4--9--7-7-7-7--5-7-7-5-7-7---4-4-4-4--4-4-4-4--7-7-7-7----|
A|--2-2-2-2--4-4-4-4--7--7-7-7-7--5-7-7-5-7-7---2-2-2-2--4-4-4-4--7-7-7-7----|
E|-----------2-2-2-2-----5-5-5-5--3-5-5-3-5-5------------2-2-2-2--5-5-5-5----|

E|---------------------------------------------------------------------------|
B|---------------------------------------------------------------------------|
G|--7--6--4--6--4--2---------------------------------------------------------|
D|--7--6--4--6--4--2---------------------------------------------------------|
A|--5--4--2--4--2--0---------------------------------------------------------|
E|---------------------------------------------------------------------------|

E|---------------------------------------------------------------------------|
B|---------------------------------------------------------------------------|
G|---------------------------------------------------------------------------|
D|--4----4-------------------------------------------------------------------|
A|--4----4-------------------------------------------------------------------|
E|--2----2-------------------------------------------------------------------|

[Outro]
Palm muting in the firsts 8 repetitions, really obvious when played along to the record
E|---------------------------------------------------------------------------|
B|---------------------------------------------------------------------------|
G|----------------2--2--4-4-4-4-4--6--6--7-7-7-7-7-7-7--9-9------------------|
D|--2--4-4-4-4-4--2--2--4-4-4-4-4--6--6--7-7-7-7-7-7-7--9-9------------------| x8
A|--2--4-4-4-4-4--0--0--2-2-2-2-2--4--4--5-5-5-5-5-5-5--7-7------------------|
E|--0--2-2-2-2-2-------------------------------------------------------------|

E|-----------------------------|    
B|-----------------------------|    
G|-----------7--6--4--6--4--2--|    
D|--4-4-4-4--7--6--4--6--4--2--| x3 
A|--4-4-4-4--5--4--2--4--2--0--|    
E|--2-2-2-2--------------------|    
             .  .  .  .  .  .

E|-------|
B|-------|
G|-------|
D|--4----|
A|--4----|
E|--2----|


************************************

| .  Palm mute

************************************
Suggest correction
Give kudos to tab author, rate the tab!
1 2 3 4 5
comments
print report bad tab
guest
You may want to rate the tab now too:
select rating
Wanna post a correction for this tab? Suggest correction