Oops, an error
Loading. Please wait.

Battery - Retrace Tab

1 view 1 this week
no commentswrite comment
1 2 3 4 5
3 more votes to show rating
add to favorites
launch autoscroll
font size
0
reset
how to read this tab
guitar tuner
Autoscroll
slow
fast
+/-
esc
set tempo
stop
Help us to improve Ultimate-Guitar.com Take our survey!
×
Author
Difficulty
intermediate
The 7th fret B in every verse is palm muted, far easier to listen to recording than mark out here

[Intro]
E|---------------------------------------------------------------------------|
B|---------------------------------------------------------------------------|
G|-----------------9-9-9--12-12-12-------------------------------------------|
D|--9-9-9-9-9-9-9--9-9-9--12-12-12-------------------------------------------| x3
A|--9-9-9-9-9-9-9--7-7-7--10-10-10-------------------------------------------|
E|--7-7-7-7-7-7-7------------------------------------------------------------|

[Verse]
E|---------------------------------------------------------------------------|
B|---------------------------------------------------------------------------|
G|-----------------9-9-9--12-12-12-----------------7-9-9---------------------|
D|--9-9-9-9-9-9-9--9-9-9--12-12-12----9-9-9-9-9-9--7-9-9--9-10--7-7----------| x2
A|--9-9-9-9-9-9-9--7-7-7--10-10-10----9-9-9-9-9-9--5/7-7--9-10--7-7----------|
E|--7-7-7-7-7-7-7---------------------7-7-7-7-7-7---------7/8---5-5----------|

[Chorus]
E|---------------------------------------------------------------------------|
B|---------------------------------------------------------------------------|
G|------------------------------------------------7-7-7-7--5-5-5-5-5-5-------|
D|--9-9-9-9-9-9--10-10-10-10-------------2-2-2-2--7-7-7-7--5-5-5-5-5-5-------| x2
A|----------------------------10-10-10---2-2-2-2--5-5-5-5--3-3-3-3-3-3-------|
E|---------------------------------------0-0-0-0-----------------------------|

E|---------------------------------------------------------------------------|
B|---------------------------------------------------------------------------|
G|--9-9-9-9-9--12-12-12-12--14-14-14-14-14-14-14---9-9-9-9-9--12-12-12-12----|
D|-------------------------------------------------9-9-9-9-9--12-12-12-12----|
A|--7-7-7-7-7--10-10-10-10--12-12-12-12-12-12-12---7-7-7-7-7--10-10-10-10----|
E|---------------------------------------------------------------------------|

[Verse]
E|---------------------------------------------------------------------------|
B|---------------------------------------------------------------------------|
G|-----------------9-9-9--12-12-12-----------------7-9-9---------------------|
D|--9-9-9-9-9-9-9--9-9-9--12-12-12----9-9-9-9-9-9--7-9-9--9-10--7-7----------| x2
A|--9-9-9-9-9-9-9--7-7-7--10-10-10----9-9-9-9-9-9--5/7-7--9-10--7-7----------|
E|--7-7-7-7-7-7-7---------------------7-7-7-7-7-7---------7/8---5-5----------|

[Chorus]
E|---------------------------------------------------------------------------|
B|---------------------------------------------------------------------------|
G|------------------------------------------------7-7-7-7--5-5-5-5-5-5-------|
D|--9-9-9-9-9-9--10-10-10-10-------------2-2-2-2--7-7-7-7--5-5-5-5-5-5-------| x2
A|----------------------------10-10-10---2-2-2-2--5-5-5-5--3-3-3-3-3-3-------|
E|---------------------------------------0-0-0-0-----------------------------|

E|---------------------------------------------------------------------------|
B|---------------------------------------------------------------------------|
G|--9-9-9-9-9--12-12-12-12--14-14-14-14-14-14-14---9-9-9-9-9--12-12-12-12----|
D|-------------------------------------------------9-9-9-9-9--12-12-12-12----|
A|--7-7-7-7-7--10-10-10-10--12-12-12-12-12-12-12---7-7-7-7-7--10-10-10-10----|
E|---------------------------------------------------------------------------|

[Outro]
E|-------------------------------------------|
B|-------------------------------------------|
G|--4-4-4-4-4-4--5-5-5-5-5-------------------|
D|--------------------------5-5-5-5-5--------| x3
A|--2-2-2-2-2-2--3-3-3-3-3--5-5-5-5-5--------|
E|--------------------------3-3-3-3-3--------|

************************************

| /  Slide up

************************************
Suggest correction
Give kudos to tab author, rate the tab!
1 2 3 4 5
comments
print report bad tab
guest
You may want to rate the tab now too:
select rating
Wanna post a correction for this tab? Suggest correction