Oops, an error
Loading. Please wait.

Battlesword - Last Rising Sun Tab

102 views 1 this week
no commentswrite comment
1 2 3 4 5
please rate
add to favorites
launch autoscroll
font size
0
reset
how to read this tab
guitar tuner
Autoscroll
slow
fast
+/-
esc
set tempo
stop
Help us to improve Ultimate-Guitar.com Take our survey!
×
Author
Difficulty
Tuning
advanced
D# G# C# F# A# D#
Artist    : Battlesword            
Song      : Last Rising Sun
Album     : Falling In Triumph
Tabed by  : general maxx

Key:
~ - vibrato
/ - slide up
\ - slide down
p - pull off
h - hammer on
. - palm muted

Intro(gtr.1):
acustic
Eb||--------------------------------------------------||
Bb||--------------------------------------------------||
Gb||--------------------------------------------------||
Db||---5-4-2--2-4-5--4-5\7-5-4-5--5-4-2--2-4-2-0-2----||
Ab||--------------------------------------------------||
Eb||--------------------------------------------------||

gtr.1
acustic
Eb||--------------------------------------------------||
Bb||--------------------------------------------------||
Gb||--------------------------------------------------||
Db||---5-4-2--2-4-5--4-5\7-5-4-5--5-4-2--2-4-2-0-2----||
Ab||--------------------------------------------------||
Eb||--------------------------------------------------||

gtr.2
acustic
Eb||------------------------------------------------------||
Bb||------------------------------------------------------||
Gb||--7-5-4--4-5-4--2-4-5--4-2-4--4-2-0--0-2-0---0--------||
Db||-------------------------------------------4---4-2----||
Ab||------------------------------------------------------||
Eb||------------------------------------------------------||

gtr.1 & 2
disortion
Eb||-------------------------------------------------------------------||
Bb||-------------------------------------------------------------------||
Gb||-------------------------------------------------------------------||
Db||---55-44-22--22-44-55--44-55-77-55-44-55--55-44-22--22-44-22-00-22-||
Ab||-------------------------------------------------------------------||
Eb||-------------------------------------------------------------------||

gtr.1
disortion
Eb||-------------------------------------------------------------------||
Bb||-------------------------------------------------------------------||
Gb||-------------------------------------------------------------------||
Db||---55-44-22--22-44-55--44-55-77-55-44-55--55-44-22--22-44-22-00-22-||
Ab||-------------------------------------------------------------------||
Eb||-------------------------------------------------------------------||

gtr.2
disortion
Eb||------------------------------------------------------------------------
Bb||------------------------------------------------------------------------
Gb||--77-55-44--44-55-44--22-44-55--44-22-44--44-22-00--00-22-00---00-------
Db||-------------------------------------------------------------44---44-22-
Ab||------------------------------------------------------------------------
Eb||-----------------------------------------------------------------------

gtr.1 & 2
disortion
Eb||----------------------------------------------------------------------||
Bb||----------------------------------------------------------------------||
Gb||----------------------------------------------------------------------||
Db||---55-44-22--22-44-55--44-55-77-55-44-55--55-44-22--22-44-22-00-22----||
Ab||----------------------------------------------------------------------||
Eb||----------------------------------------------------------------------||

gtr.1 & 2
Eb||------------------------------------||
Bb||------------------------------------||
Gb||------------------------------------||
Db||--2-2-2-----------------------------|| 2x
Ab||--2-2-2--3333-55----2222--55-22-55--||
Eb||--0-0-0----------55-----------------||

gtr.1
Eb||---------------------------------------||
Bb||---------------------------------------||
Gb||------------------------------2--------||
Db||--2-----------2-2-3---5-3-2-2---2------||
Ab||---------------------------------------||\
Eb||---------------------------------------|| \
                                               \
gtr.2                                           \
Eb||---------------------------------------||    \
Bb||---------------------------------------||     \
Gb||---------------------------------------||      \
Db||---------------------------------------||       \
Ab||-0-0-0-0-0-0-0-0-0-1-1-1-1-1-1-1-1-1---||        \     /
Eb||---------------------------------------||         \   /   \/
PM   . . . . . . . . . . . . . . . . . .              \  /
                                                       \ /__| /\
gtr.1                                                  /    |
Eb||-----------------------------||                   /
Bb||-----------------------------||                  /
Gb||-----------------------------||                 /
Db||--2----------5p3p2----10^-9^-||                /
Ab||-----------------------------||               /
Eb||-----------------------------||              /
                                                /
gtr.2                                          /
Eb||-----------------------------||           /
Bb||-----------------------------||__________/
Gb||-----------------------------||
Db||-------------------5---3--2--||
Ab||-0-0-0-0-0-0-0-0---5---3--2--||
Eb||-------------------3---1--0--||
PM   . . . . . . . .

gtr.1
Eb||--------------------------------------------------||
Bb||--------------------------------------------------||
Gb||--22-55-44-55-00-55-44-55-0-0-0-0-0-0-0-0---------||
Db||-------------------------------------------5\7~---||
Ab||--------------------------------------------------||\
Eb||--------------------------------------------------|| \
                                                          \ 2x
gtr.2                                                     /
Eb||--------------------------------------------------|| /
Bb||--------------------------------------------------||/
Gb||--------------------------------------------------||
Db||--7------------5-----------5---------------3------||
Ab||--7------------5-----------5---------------3------||
Eb||--5------------3-----------3---------------1------||


gtr.1 & 2
Eb||------------------------------------------------------------||
Bb||------------------------------------------------------------||
Gb||------------------------------------------------------------||
Db||------------------------------------------------------------||
Ab||--5-0-0-0-0-0-0-0-7-0-0-0-0-5-7-----------------5--3--2--3--||\
Eb||--------------------------------3-3-3-3-3-3-3-3-------------|| \
                                                                    \ 2x
gtr.1 & 2                                                           /
Eb||------------------------------------------------------------|| /
Bb||------------------------------------------------------------||/
Gb||------------------------------------------------4--5--2--4--||
Db||-------------------5--4-------------------------------------||
Ab||-------------------------5--4-------------------------------||
Eb||--1-1-1-1-1-1-1-1--------------3-3-3-3-3-3-3-3--------------||

gtr.1
Eb||---------------------------------------------------------||
Bb||---------------------------------------------------------||
Gb||--9---------------------7---------------------5\7-----7--||
Db||--x---------------------7---------------------5\7-----7--||
Ab||--7-----\\\9~--\\\6~----5-----///5~\3--3~-----3\5-5-5-5--||
Eb||---------------------------------------------------------||

gtr.1
Eb||----------------------------------------||
Bb||----------------------------------------||
Gb||--\\\9---\\\5---------7----------///5---||
Db||--\\\9---\\\5---------7-----------------||
Ab||--\\\7---\\\3---------5-----------------||
Eb||----------------------5-----------------||

gtr.2
Eb||----------------------------------------||
Bb||----3--------------------------6--------||
Gb||--5---5---3-----------7------7----------||
Db||----------------------7-----------------||
Ab||----------------------5-----------------||
Eb||----------------------5-----------------||


gtr.1
Eb||--------------------------------------------------||
Bb||--------------------------------------------------||
Gb||--22-55-44-55-00-55-44-55-0-0-0-0-0-0-0-0---------||
Db||-------------------------------------------5\7~---||
Ab||--------------------------------------------------||\
Eb||--------------------------------------------------|| \
                                                          \
First time something else, but I don't know what...        \4x
                                                           /
gtr.2                                                     /
Eb||--------------------------------------------------|| /
Bb||--------------------------------------------------||/
Gb||--------------------------------------------------||
Db||--7------------5-----------5---------------3------||
Ab||--7------------5-----------5---------------3------||
Eb||--5------------3-----------3---------------1------||

gtr.1 & 2
Eb||-----------------------------------||
Bb||-----------------------------------||
Gb||-----------------------------------|| 2x
Db||--7--7----------------7--7--5-3-5--||
Ab||--7--7----------------7--7--5-3-5--||
Eb||--5--5--555555555555--5--5--3-1-3--||
PM    .     ............  .

gtr.1                                 2x
Eb||-----------------------------------||-----||
Bb||-----------------------------------||-----||
Gb||-----------------------------------||-----||
Db||--7--7----------------7--7--5-3-5--||--7--||
Ab||--7--7----------------7--7--5-3-5--||--7--||
Eb||--5--5--555555555555--5--5--3-1-3--||--5--||
PM    .     ............  .

gtr.2 (short solo)
Eb||-------------------------------------------------||
Bb||-------------------------------------------------||
Gb||-------------------------------------------------||
Db||-----7----5^--7------9--10--9---9--10----9--10---||
Ab||-------------------------------------------------||
Eb||-------------------------------------------------||
PM                                  .

Eb||------------------||
Bb||------------------||
Gb||------------------||
Db||--12-10-9-10------||
Ab||------------------||
Eb||------------------||
Suggest correction
Give kudos to tab author, rate the tab!
1 2 3 4 5
comments
print report bad tab
guest
You may want to rate the tab now too:
select rating
Wanna post a correction for this tab? Suggest correction