Oops, an error
Loading. Please wait.

Bearlee Passing - Guilty Pleasures Bass Tab

84 views 1 this week
no commentswrite comment
1 2 3 4 5
3 more votes to show rating
add to favorites
launch autoscroll
font size
0
reset
guitar tuner
Autoscroll
slow
fast
+/-
esc
set tempo
stop
Help us to improve Ultimate-Guitar.com Take our survey!
×
Author
Difficulty
novice
intro and verses
|-1-&-2-&-3-&-4-&-|-1-&-2-&-3-&-4-&-|-1-&-2-&-3-&-4-&-|-1-&-2-&-3-&-4-&-|
G-----------------|-----------------|-----------------|-----------------|
D-----------------|-----------------|-----------------|-----------------|
A-----------------|-----------------|-6-6-6-6-6-6-6-6-|-3-3-3-3-3-3-3-3-|
E-0-0-0-0-0-0-0-0-|-5-5-5-5-5-5-5-5-|-----------------|-----------------|

Solo
|-1-&-2-&-3-&-4-&-|-1-&-2-&-3-&-4-&-|-1-&-2-&-3-&-4-&-|-1-&-2-&-3-&-4-&-|
G-----------------|-----------------|-----------------|-----------------|
D-----------------|-----------------|-----------------|-----------------|
A-----------------|-----------------|-6-6-6-6-6-6-6-6-|-3-3-3-3-3-3-3-3-|
E-0-0-0-0-0-0-0-0-|-5-5-5-5-5-5-5-5-|-----------------|-----------------|

|-1-&-2-&-3-&-4-&-|-1-&-2-&-3-&-4-&-|-1-&-2-&-3-&-4-&-|-1-&-2-&-3-&-4-&-
G-----------------|-----------------|-----------------|-----------------|
D-----------------|-----------------|-----------------|-----------------|
A-----------------|-----------------|-6-------0---0---|-0---0---0---0---|
E-0-0-0-0-0-0-0-0-|-5-5-5-5-5-5-5-5-|-----------------|-----------------|

Back to verses
|-1-&-2-&-3-&-4-&-|-1-&-2-&-3-&-4-&-|-1-&-2-&-3-&-4-&-|-1-&-2-&-3-&-4-&-|
G-----------------|-----------------|-----------------|-----------------|
D-----------------|-----------------|-----------------|-----------------|
A-----------------|-----------------|-6-6-6-6-6-6-6-6-|-3-3-3-3-3-3-3-3-|
E-0-0-0-0-0-0-0-0-|-5-5-5-5-5-5-5-5-|-----------------|-----------------|

Fade out to let guitar finish
Suggest correction
Give kudos to tab author, rate the tab!
1 2 3 4 5
comments
print report bad tab
guest
You may want to rate the tab now too:
select rating
Wanna post a correction for this tab? Suggest correction