Oops, an error
Loading. Please wait.

Bears Eat Me - Lost World Tab

82 views 1 this week
no commentswrite comment
1 2 3 4 5
2 more votes to show rating
add to favorites
launch autoscroll
font size
0
reset
how to read this tab
guitar tuner
Autoscroll
slow
fast
+/-
esc
set tempo
stop
Help us to improve Ultimate-Guitar.com Take our survey!
×
Author
BEARS EAT ME
LOST WORLD
LEAD GUITAR
DROP D

p = PINCH HARMONIC

INTRO     2X
VERSE     4X
BRIDGE    2X
CHORUS    4X
INTERLUDE 2X
VERSE     4X
BRIDGE    2X
CHORUS    4X
BREAKDOWN 2X
INTERLUDE 2X 
VERSE     4X
BRIDGE    2X
CHORUS    4X

YOU ARE GOING TO WANT TO BAR A LOT 
EVEN DURING THE LEADS JUST TO MAKE 
THE NOTES RING OUT.

INTRO 2X
|----------------------------------------------------------------|
|----------------------------------------------------------------|
|----9-9-7-7-9-9-----9-9-7-7-9-9-----9-9-7-7-9-9-5-5-5-5---------|
|7-7-------------7-7-------------7-7---------------------5-5-5-5-|
|----------------------------------------------------------------|
|----------------------------------------------------------------|
|-|-|-|-|-|-|-|-|-|-|-|-|-|-|-|-|-|-|-|-|-|-|-|-|-|-|-|-|-|-|-|-|  

VERSE 4X
|--------------------------------|
|--------------------------------|
|------------------12~~~~--------|
|------9-------9-----10~~--12~~~~|
|----7-------7---------------10~~|
|7-7-----7-7-----10------10------|
|-|-|-|-|-|-|-|-|-|p|-|-|-|p|-|-|-

BRIDGE 2X
|----------------------------------------------------------------|
|----------------------------------------------------------------|
|----------------------------------------------------------------|
|9-9-9---9-9-9---9-9-9---9-9-12109-9-9---9-9-9---7---7-7---7-7-7-|
|9-9-9---9-9-9---9-9-9---9-9-12109-9-9---9-9-9---7---7-7---7-7-7-|
|9-9-9---9-9-9---9-9-9---9-9-12109-9-9---9-9-9---7---7-7---7-7-7-|
|-|-|-|-|-|-|-|-|-|-|-|-|-|-|-|-|-|-|-|-|-|-|-|-|-|-|-|-|-|-|-|-|  


CHORUS 4X (SAME AS INTRO)
|----------------------------------------------------------------|
|----------------------------------------------------------------|
|----9-9-7-7-9-9-----9-9-7-7-9-9-----9-9-7-7-9-9-5-5-5-5---------|
|7-7-------------7-7-------------7-7---------------------5-5-5-5-|
|----------------------------------------------------------------|
|----------------------------------------------------------------|
|-|-|-|-|-|-|-|-|-|-|-|-|-|-|-|-|-|-|-|-|-|-|-|-|-|-|-|-|-|-|-|-|  

INTERLUDE 
|----------------------------------------------------------------|
|----------------------------------------------------------------|
|----------------------------------------------------------------|
|----------------9~~~~~~~~~~~~~~~10~~~~~~~~~~~~~~~~~~~~~~~~~~~~~~|
|12~~~~~~~~~~~~~~------------------------------------------------|
|----------------------------------------------------------------|
|-|-|-|-|-|-|-|-|-|-|-|-|-|-|-|-|-|-|-|-|-|-|-|-|-|-|-|-|-|-|-|-|  
|----------------------------------------------------------------|
|----------------------------------------------------------------|
|--------------------------------9~~~~~~~~~~~~~~~~~~~~~~~~~~~~~~~|
|----------------9~~~~~~~~~~~~~~~--------------------------------|
|12~~~~~~~~~~~~~~------------------------------------------------|
|----------------------------------------------------------------|
|-|-|-|-|-|-|-|-|-|-|-|-|-|-|-|-|-|-|-|-|-|-|-|-|-|-|-|-|-|-|-|-|  

VERSE 4X
|--------------------------------|
|--------------------------------|
|------------------12~~~~--------|
|------9-------9-----10~~--12~~~~|
|----7-------7---------------10~~|
|7-7-----7-7-----10------10------|
|-|-|-|-|-|-|-|-|-|p|-|-|-|p|-|-|-

BRIDGE 2X
|----------------------------------------------------------------|
|----------------------------------------------------------------|
|----------------------------------------------------------------|
|9-9-9---9-9-9---9-9-9---9-9-12109-9-9---9-9-9---7---7-7---7-7-7-|
|9-9-9---9-9-9---9-9-9---9-9-12109-9-9---9-9-9---7---7-7---7-7-7-|
|9-9-9---9-9-9---9-9-9---9-9-12109-9-9---9-9-9---7---7-7---7-7-7-|
|-|-|-|-|-|-|-|-|-|-|-|-|-|-|-|-|-|-|-|-|-|-|-|-|-|-|-|-|-|-|-|-|  


CHORUS 4X (SAME AS INTRO)
|----------------------------------------------------------------|
|----------------------------------------------------------------|
|----9-9-7-7-9-9-----9-9-7-7-9-9-----9-9-7-7-9-9-5-5-5-5---------|
|7-7-------------7-7-------------7-7---------------------5-5-5-5-|
|----------------------------------------------------------------|
|----------------------------------------------------------------|
|-|-|-|-|-|-|-|-|-|-|-|-|-|-|-|-|-|-|-|-|-|-|-|-|-|-|-|-|-|-|-|-|  

BREAKDOWN 2X (SAME AS INTRO)
|----------------------------------------------------------------|
|----------------------------------------------------------------|
|----9-9-7-7-9-9-----9-9-7-7-9-9-----9-9-7-7-9-9-5-5-5-5---------|
|7-7-------------7-7-------------7-7---------------------5-5-5-5-|
|----------------------------------------------------------------|
|----------------------------------------------------------------|
|-|-|-|-|-|-|-|-|-|-|-|-|-|-|-|-|-|-|-|-|-|-|-|-|-|-|-|-|-|-|-|-|  

VERSE 4X
|--------------------------------|
|--------------------------------|
|------------------12~~~~--------|
|------9-------9-----10~~--12~~~~|
|----7-------7---------------10~~|
|7-7-----7-7-----10------10------|
|-|-|-|-|-|-|-|-|-|p|-|-|-|p|-|-|-

BRIDGE 2X
|----------------------------------------------------------------|
|----------------------------------------------------------------|
|----------------------------------------------------------------|
|9-9-9---9-9-9---9-9-9---9-9-12109-9-9---9-9-9---7---7-7---7-7-7-|
|9-9-9---9-9-9---9-9-9---9-9-12109-9-9---9-9-9---7---7-7---7-7-7-|
|9-9-9---9-9-9---9-9-9---9-9-12109-9-9---9-9-9---7---7-7---7-7-7-|
|-|-|-|-|-|-|-|-|-|-|-|-|-|-|-|-|-|-|-|-|-|-|-|-|-|-|-|-|-|-|-|-|  


CHORUS 4X (SAME AS INTRO)
|----------------------------------------------------------------|
|----------------------------------------------------------------|
|----9-9-7-7-9-9-----9-9-7-7-9-9-----9-9-7-7-9-9-5-5-5-5---------|
|7-7-------------7-7-------------7-7---------------------5-5-5-5-|
|----------------------------------------------------------------|
|----------------------------------------------------------------|
|-|-|-|-|-|-|-|-|-|-|-|-|-|-|-|-|-|-|-|-|-|-|-|-|-|-|-|-|-|-|-|-|  

END WITH A POWER CHORD ON 7TH FRET OF 6TH STRING.
Suggest correction
Give kudos to tab author, rate the tab!
1 2 3 4 5
comments
print report bad tab
guest
You may want to rate the tab now too:
select rating
Wanna post a correction for this tab? Suggest correction