Oops, an error
Loading. Please wait.

Bears Eat Me - Sleeping Tab

94 views 1 this week
no commentswrite comment
1 2 3 4 5
please rate
add to favorites
launch autoscroll
font size
0
reset
how to read this tab
guitar tuner
Autoscroll
slow
fast
+/-
esc
set tempo
stop
Help us to improve Ultimate-Guitar.com Take our survey!
×
Author
BEARS EAT ME
SLEEPING
RHYTHM GUITAR
DROP D

* = PALM MUTE
^ = UP STROKE
v = DOWN STROKE
(USED IN LAST PART)

THIS SONG'S ORDER IS VERY WEIRD SO I'LL JUST TAB IT IN ORDER.

KEEP IN MIND THAT THE ENTIRE RHYTHM IN THIS SONG IS TOO HARD FOR YOU OR ME TO PLAY ONLY 
IT TAKES A LOT OF STRETCHING ABILITY THAT ONLY MANDO HAD.
TRUST ME. SO I MADE ONE OF THE RHYTHM PARTS A LEAD PART TO MAKE IT PLAYABLE.

2x
|----------------------------------------------------------------|
|----------------------------------------------------------------|
|----------------------------------------------------------------|
|----7-------7-------7-------7-------5-------5-------5-------5---|
|--7---7---7---7---7---7---7---7---5---5---5---5---5---5---5---5-|
|7-------7-------7-------7-------5-------5-------5-------5-------|
|               |               |               |                |
4x              |               |               |                |
|----------------------------------------------------------------|
|----------------------------------------------------------------|
|----------------------------------------------------------------|
|7-7-1099-99-107-7-7-1099-99-107-5-5-9-77-77-9-5-5-5-9-77-77-9-5-|
|7-7-7-77-77-7-7-7-7-7-77-77-7-7-5-5-5-55-55-5-5-5-5-5-55-55-5-5-|
|7-7-7-77-77-7-7-7-7-7-77-77-7-7-5-5-5-55-55-5-5-5-5-5-55-55-5-5-|
|"Stepping..."  |               |               |                |
2x              |               |               |                |
|----------------------------------------------------------------|
|----------------------------------------------------------------|
|------------7---------------7---------------5-------------------|
|7-7-1097-910--107-7-1097-910--105-5-9-75-59---9-5-5-9-75-59---9-|
|7-7-------------7-7-------------5-5-------------5-5-------------|
|7-7-------------7-7-------------5-5-------------5-5-------------|
|"You can't..." |               |               |                |
2x              |               |               |                |
|----------------------------------------------------------------|
|----------------------------------------------------------------|
|----------7---------------7---------------5---------------5-----|
|7-7-1097-9--109-7-7-1097-9--109-5-5-9-75-7--9-7-5-5-9-75-7--9-7-|
|7-7-------------7-7-------------5-5-------------5-5-------------|
|7-7-------------7-7-------------5-5-------------5-5-------------|
|"Things are..."|               |               |                |
6x              |               |               |                |
|----------------------------------------------------------------|
|----------------------------------------------------------------|
|----------------------------------------------------------------|
|7-7---7-7-7---7-7-7---7-7-7-77775-5---5-5-5---5-5-5---5-5-5-5555|
|7-7---7-7-7---7-7-7---7-7-7-77775-5---5-5-5---5-5-5---5-5-5-5555|
|7-7---7-7-7---7-7-7---7-7-7-77775-5---5-5-5---5-5-5---5-5-5-5555|
 *       *       *       *       *       *       *       *
 v ^   ^ v ^   ^ v ^   ^ v ^ v^v^v ^   ^ v ^   ^ v ^   ^ v ^ v^v^
"WAKE UP!..."

* = PALM MUTE
^ = UP STROKE
v = DOWN STROKE

END WITH A POWER CHORD ON THE 7th FRET OF THE 6th STRING
Suggest correction
Give kudos to tab author, rate the tab!
1 2 3 4 5
comments
print report bad tab
guest
You may want to rate the tab now too:
select rating
Wanna post a correction for this tab? Suggest correction