Oops, an error
Loading. Please wait.

Beautiful Dying Day - Proclaim Bass Tab

134 views 1 this week
1 commentread comment
1 2 3 4 5
3 more votes to show rating
add to favorites
launch autoscroll
font size
0
reset
guitar tuner
Autoscroll
slow
fast
+/-
esc
set tempo
stop
Help us to improve Ultimate-Guitar.com Take our survey!
×
Author
Difficulty
Tuning
novice
D A D G B E
Intro:
G|-------------------------------------------------------------------------------|
D|-------------------------------------------------------------------------------|
A|-4444442222220000002222224444442222220000002-----444---222---000---222---------|
D|------------------------------------ -------------------222---222---222---222--|
    “All I really want to do right now…
…SCREAM, not for me but for
------------------|
------------------|
4--4--2--0------ -|
------------------|
 you…”

Verse:
G|---------------------------------------------------------------------------|
D|---------------------------------------------------------------------------|
A|4-----2-----0-----2-----4-----2-----0-----2--------------------------------|    (X2)
D|-------------------------------------------------0-0-----------------------|

Chorus:
G|---------------------------------------------------------------------|
D|---------------------------------------------------------------------|
A|0--0--0--2224444446667770--0--0--222444444777666(X2)0000002----------|
D|---------------------------------------------------------------------|

(Verse, same)

(Chorus, same)

Bridge:
G|----------------------------------------------------------------------|
D|----------------------------------------------------------------------|
A|4444---------4444---------0000----------------------------------------|
D|--------2--1----------2--4----------2--1--444444666777----------------|
(repeated throughout 1st bridge, solo, and second bridge)


(Chorus, same)

(Intro, first part)

Outro:
G|---------------------------------------------------------------------------|
D|---------------------------------------------------------------------------|
A|44-4467--------------------------------------------------------------------|
D|------------4-----(held)---------------------------------------------------|
Suggest correction
Give kudos to tab author, rate the tab!
1 2 3 4 5
comments
print report bad tab
1 comment total.
0 reply
BASSMASTA1988 10 Sep 04, 2008 12:17 PM

u guys r gay.

guest
You may want to rate the tab now too:
select rating
Wanna post a correction for this tab? Suggest correction