Oops, an error
Loading. Please wait.

Beautiful Dying Day - Take It Away Bass Tab

89 views 1 this week
no commentswrite comment
1 2 3 4 5
3 more votes to show rating
add to favorites
launch autoscroll
font size
0
reset
guitar tuner
Autoscroll
slow
fast
+/-
esc
set tempo
stop
Help us to improve Ultimate-Guitar.com Take our survey!
×
Author
Difficulty
Tuning
novice
D A D G B E
Intro: (little guitar riff-mary had a little lamb)
G|----------------------{-------------------------------------------------------|
D|----------------------{-------------------------------------------------------|
A|----------------------{--------------------33--33-------666555333111----------|
D|11310----------------{--55--55---88--88-----------------------------4-4-------|

G|-----------------------------------------------------------------------------|
D|-----------------------------------------------------------------------------|
A|------------------33--33-----------------------------------------------------|
D|55--55---88--88-------------------------0-0-0-0-0-0-0-0----------------------|

Verse:
G|------------------------------------------------------------------------------|
D|------------------------------------------------------------------------------|
A|--------------------------------------------33333333--------------------------|
D|5555555588888888333333331111333355555555---------333333331111333300000--------|

Chorus:
G|------------------------------------------------|
D|------------------------------------------------|
A|---------1111-----------------------------------| (X2)
D|55551111-----33335555111155553333---------0-----|

(Verse, same)
(Chorus, same)

Bridge 1: (0 on low D string whole time)

Bridge 2:
G|-----------------------------------------------------------------------------|
D|-----------------------------------------------------------------------------|
A|-----------------------------------------------------------------------------|
D|5555---1111---3333---111000-(X2)-5---1---3---1-3-5---1--3---1-0 (X2)---------|

(Chorus, same)

Outro
G|-----------------------------------------------------------------------------|
D|-----------------------------------------------------------------------------|
A|-----------------------------------------------------------------------------|
D|5---3--5--5----11315---------------------------------------------------------|
Suggest correction
Give kudos to tab author, rate the tab!
1 2 3 4 5
comments
print report bad tab
guest
You may want to rate the tab now too:
select rating
Wanna post a correction for this tab? Suggest correction