Oops, an error
Loading. Please wait.

Behold My Vengeance - Crimson Skies Tab

13 views 1 this week
no commentswrite comment
1 2 3 4 5
3 more votes to show rating
add to favorites
launch autoscroll
font size
0
reset
how to read this tab
guitar tuner
Autoscroll
slow
fast
+/-
esc
set tempo
stop
Help us to improve Ultimate-Guitar.com Take our survey!
×
Author
Difficulty
Tuning
intermediate
C G C F A D
[Intro]

Guitar 1:
D|---------------------------------------------------------------------------|
A|---------------------------------------------------------------------------|
F|---------------------------------------------------------------------------|
C|-----7---5---------------------------7---5----------------/8-5v------------|
G|---------------7---8-----5h7-3h5---------------7---8-----------------------|
C|-0-0---0---0-0---0---0-0---------0-0---0---0-0---0---0-0-------------------|(x4)

Guitar 2:first 2 times
D|---------------------------------------------------------------------------|
A|---------------------------------------------------------------------------|
F|---------------------------------------------------------------------------|
C|-0~~~----------------------------0~~~--------------------------------------|
G|-0~~~----------------------------0~~~--------------------------------------|
C|-0~~~----------------------------0~~~--------------------------------------|(x2)

Guitar 2:harmony part
D|---------------------------------------------------------------------------|
A|---------------------------------------------------------------------------|
F|---------------------------------------------------------------------------|
C|-----3---2---------------------------3---2---------------------------------|
G|---------------3---5-----2h3-0h2---------------3---5-----/5-3v-------------|
C|-0-0---0---0-0---0---0-0---------0-0---0---0-0---0---0-0-------------------|(x2)

Amur Sheapase



************************************

| /  Slide up
| h  Hammer-on
| ~  Vibrato 

************************************
Suggest correction
Give kudos to tab author, rate the tab!
1 2 3 4 5
comments
print report bad tab
guest
You may want to rate the tab now too:
select rating
Wanna post a correction for this tab? Suggest correction