Oops, an error
Loading. Please wait.

Ben King - Stand By Me Bass Tab

2,415 views 1 this week
no commentswrite comment
1 2 3 4 5
2 more votes to show rating
add to favorites
launch autoscroll
font size
0
reset
guitar tuner
Autoscroll
slow
fast
+/-
esc
set tempo
stop
Help us to improve Ultimate-Guitar.com Take our survey!
×
Author
G|-2----2-------1--|-2----2-----2-1--|--------------2--|-----------------|
D|------------2----|-----------------|-4----4-----4----|-4----4-----4-2--|
A|-----------------|-----------------|-----------------|-----------------|
E|-----------------|-----------------|-----------------|-----------------|

G|-----------------|--------------1--|-2----2-------1--|-2----2-------1--|
D|-0----0-----0-4--|-2----2-----2----|------------2----|------------2----|
A|-----------------|-----------------|-----------------|-----------------|
E|-----------------|-----------------|-----------------|-----------------|

that's repeating all the time
Suggest correction
Give kudos to tab author, rate the tab!
1 2 3 4 5
comments
print report bad tab
guest
You may want to rate the tab now too:
select rating
Wanna post a correction for this tab? Suggest correction