Oops, an error
Loading. Please wait.

Beware - Bring The Funk Bass Tab

1,085 views 1 this week
no commentswrite comment
1 2 3 4 5
please rate
add to favorites
launch autoscroll
font size
0
reset
guitar tuner
Autoscroll
slow
fast
+/-
esc
set tempo
stop
Help us to improve Ultimate-Guitar.com Take our survey!
×
Song Name:"Bring The Funk" (Bass Riffs 1 & 2, and Walking Bass Line)
Band Name:Beware / Devil Theory
AlBum Name:We Are, Beware!
Tabber:Toki Vengeance (Dakota Fletcher)
Tuning:Drop D (D,A,D,G,B,E)
More Info:This is a work in progress. It is tabbed from a jam session and is not 
If you have any comments on this song feel free to send an email to m12toki@aol.com


Riff 1:
G:-------------------------------|
D:-------------------------------|
A:---------3-5---5--0-5-3--------|
D:--0--3-5-----------------------|


Riff 2:
G:------------------------------------------|
D:------------------------------------------|
A:------------0--5-3-------------0--3-5-3---|
D:--0-0--3-5-----------0-0--3-5-------------|


Walking Bass Line:
G:--------------------------------------------------------------------------|
D:--------------------------------------------------------0--3-4-5-6-5-4-3--|
A:--------------------------------------0--3-4-5-6-5-4-3--------------------|
D:--0--3-4-5-6-5-4-3--0--3-4-5-6-5-4-3--------------------------------------|

Order (Not Offical):
Riff 1            x4
Riff 2            x4
Walking Bass Line x? (Depends on solos)
Riff 1            x6
Riff 2            x2
Suggest correction
Give kudos to tab author, rate the tab!
1 2 3 4 5
comments
print report bad tab
guest
You may want to rate the tab now too:
select rating
Wanna post a correction for this tab? Suggest correction