Oops, an error
Loading. Please wait.

Beware - Halloween Ii Bass Tab

105 views 3 this week
no commentswrite comment
1 2 3 4 5
3 more votes to show rating
add to favorites
launch autoscroll
font size
0
reset
guitar tuner
Autoscroll
slow
fast
+/-
esc
set tempo
stop
Help us to improve Ultimate-Guitar.com Take our survey!
×
Song Name:"Halloween II"
Band Name:Beware
Album Name:Beware! Zombie Xing (Beware Demo)

Tabber:Toki Vengeance (Dakota Fletcher)
Tuning:Drop D (D,A,D,G)
More Info:This is version 2 of Beware's "Halloween".
The genre of this song is Horror Rockabilly.


Intro:
G:--------------------------------------------------------------|
D:--------------------------------------------------------------|
A:--------------------------------------------------------------|
D:-0-00-0-00-0-00-0-00-3-33-3-33-3-33-3-33-5-55-5-55-5-55-5-55--|


Riff 1:
G:----------------------------------|
D:----------------------------------|
A:----------------------------------|
D:-0-0-3-3-4-4-5-5-6-6-5-5-4-4-3-3--|


Verse 1:
G:--------------------------------------------------------------------|
D:--------------------------------------------------------------------|
A:--------------------------------------------------------------------|
D:-----------------------------------0-0-3-3-4-4-5-5-6-6-5-5-4-4-3-3--|


Chorus:
G:--------------------------------------------------------|
D:--------------------------------------------------------|
A:-9--9--9----5--5--5---------------9--5-5--7--9--5-5--7--|
D:-----------------------7--7--7--------------------------| x3

G:--------------------------------------------------------|
D:--------------------------------------------------------|
A:-9--9--9----5--5--5-------------------------------------|
D:-----------------------7--------------------------------|


Verse 2:
G:-------------------------------------------------------|
D:-------------------------------------------------------|
A:------------9--9--9----5----7----9--5-5--7--9--5-5--7--|
D:-7--7--7-----------------------------------------------|

G:--------------------------------------------------------|
D:--------------------------------------------------------|
A:-9--9--9----5--5--5---------------9--5-5--7--9--5-5--7--|
D:-----------------------7--7--7--------------------------| 

G:--------------------------|
D:--------------------------|
A:-9--9--9----5--5--5-------|
D:-----------------------7--|


Guitar Solo:
[*During Guitar Solo bass plays Riff 1 over and over again until Guitar Solo is over]


Outro:
G:--------------------------------------------------------------------------|
D:--------------------------------------------------------------------------|
A:-5----------------------------------------------------------------------3-|
D:-------------7------------4------------0-0-3-3-4-4-5-5-6-6-5-5-4-4-3-3--3-|


Order:
Intro       x3
[Pause]
Riff 1      x2
Verse 1     x4
Riff 1      x2
Chorus
Riff 1      x2
Verse 1     x4
Riff 1      x2
Verse 2
Guitar Solo
Chorus
Outro
Suggest correction
Give kudos to tab author, rate the tab!
1 2 3 4 5
comments
print report bad tab
guest
You may want to rate the tab now too:
select rating
Wanna post a correction for this tab? Suggest correction