Oops, an error
Loading. Please wait.

Big B - Addicted intro tab

746 views 1 this week
1 commentread comment
1 2 3 4 5
1 last vote to show rating
add to favorites
×
Save as Personal and add changes to this tab that will be seen only by you. Learn more ›
×
You can save this tab as Personal to edit and correct it or add notes. All changes will be seen only by you. Learn more »
launch autoscroll
font size
0
reset
how to read this tab
guitar tuner
edit
Autoscroll
slow
fast
+/-
esc
set tempo
stop
Author
Difficulty
e|--------------|--------0---|
B|---1p0--0-1---|---4p1---1--|
G|--2---2-------|--0---0-----|
D|-2-----2--(x3)|-2-----2----|
A|0-------------|3-----------|
E|--------------|------------|


e|------------|
B|1----1------|
G|2----0------|
D|2----2------|
A|0----3------| these 2 chords through the chorus the rest is just the intro 
E|------------| repeated 

its nothing great and im pretty sure no1 will use this, but im trying to figure out the rest right now :)

            
            
Suggest correction
Creating personal tab
Creating personal tab
You can edit any tab online and save it as your Personal.

You can edit, replace or remove any tab part or add personal notes – all changes will be seen only by you.

Personal tabs can be accessed anytime from any device, even offline.
Learn more »
Give kudos to tab author, rate the tab!
1 2 3 4 5
comments
print report bad tab
1 comment total.
0 reply
F.O.A.D 10 Nov 04, 2008 03:19 AM

Love this tune. Thanks for the tab. Made one small correction.

e|--------------|--------0---|
B|---1p0--0-1---|---4p1---1--|
G|--2---2-------|--0---0-----|
D|-2--------(x3)|-2-----2----|
A|0-------------|3-----------|
E|--------------|------------|

guest
You may want to rate the tab now too:
select rating
Wanna post a correction for this tab? Suggest correction