Oops, an error
Loading. Please wait.

Bird Calls - Fifteen Bass Tab

62 views 1 this week
no commentswrite comment
1 2 3 4 5
please rate
add to favorites
launch autoscroll
font size
0
reset
guitar tuner
Autoscroll
slow
fast
+/-
esc
set tempo
stop
Help us to improve Ultimate-Guitar.com Take our survey!
×
Author
Difficulty
intermediate
BIRD CALLS - FIFTEEN

Guitar on It's own for four bars.

G|----------------------------|
D|----------------------------|
A|-7-6-0--0000-0000-0-000-000-| x16
E|----------------------------|

G|--------------|
D|--------------|
A|-0-(let ring)-|
E|--------------|

G|-----------------------------------|
D|----5/7-5----10-9------9-9h10-9----|
A|-3--------5-------10------------10-| x3
E|-----------------------------------|

G|-----------------------------------|
D|----5/7-5----10-9------------------|
A|-3--------5-------10---------------|
E|-----------------------------------|

G|---------------------------------|
D|---------------------------------|
A|-10-10-9-9-7-7-0-3-3-3-3-3-3-3-3-| x4
E|---------------------------------|

G|-------------------------------|
D|-------------------------------|
A|-10-10-9-9-7-7-0-3-3-3---------| x4
E|------------------------3-3-3--|

G|---------5-------------5-------------5-------------5-----|
D|-----5h7---7-5-----5h7---7-5-----------7-5-----------7-5-|
A|---------------0-0-----------7-7-5h7-------7-7-5h7-------| x4
E|-8-8-----------------------------------------------------|

G|-----------------------------|
D|-----------------------------|
A|-10--9--7--5--5--7--4--------|
E|-----------------------------|

G|---------------------------------|
D|---------------------------------|
A|-10-10-9-9-7-7-0-3-3-3-3-3-3-3-3-| x4
E|---------------------------------|

G|-------------------------------|
D|-------------------------------|
A|-10-10-9-9-7-7-0-3-3-3---------| x4
E|------------------------3-3-3--|

G|---------5-------------5-------------5-------------5-----|
D|-----5h7---7-5-----5h7---7-5-----------7-5-----------7-5-|
A|---------------0-0-----------7-7-5h7-------7-7-5h7-------| x4
E|-8-8-----------------------------------------------------|

G|-------------------------------------------------|
D|-0-0-0-0-0-0-0-0-0-0-0-0-0-0-0-0-0-0-0-0-0-0-0-0-|
A|-------------------------------------------------|
E|-------------------------------------------------|

G|-----------------------------|
D|-----------------------------|
A|-10--9--7--5--5--7--4--------|
E|-----------------------------|
Suggest correction
Give kudos to tab author, rate the tab!
1 2 3 4 5
comments
print report bad tab
guest
You may want to rate the tab now too:
select rating
Please do not post tabs as comments. Select "correction" instead!