Oops, an error
Loading. Please wait.

Bird Calls - Human Condition Bass Tab

32 views 1 this week
no commentswrite comment
1 2 3 4 5
3 more votes to show rating
add to favorites
launch autoscroll
font size
0
reset
guitar tuner
Autoscroll
slow
fast
+/-
esc
set tempo
stop
Help us to improve Ultimate-Guitar.com Take our survey!
×
Author
Difficulty
intermediate
BIRD CALLS - HUMAN CONDITION

G|-----------------------------------4--------------6-------------------|
D|-----------------------7--5--4--5-----7--5--7-------------------------|
A|--5--4--5--7--5--4--5-------------------------4-4---4-0-3-3-3-3-3-3-3-| x4
E|----------------------------------------------------------------------|

G|-----------------------------------4-2-0--0-2-4-|
D|-----------------2-0-4-4-4-4-2-2----------------|
A|-3-3-3-3-3-3-3-3--------------------------------| 1,3
E|------------------------------------------------|

G|------------------------------------------------|
D|-----------------2-0-4-4-4-4-2-2-2-2-2-2-2-2-2--|
A|-3-3-3-3-3-3-3-3--------------------------------| 2,4
E|------------------------------------------------|

G|-------------------------------16---------------------------|
D|--17--16--17--19--17--16--17-------17--15--17---7-5-4-5-4-0-|
A|------------------------------------------------------------| x4
E|------------------------------------------------------------|

G|-------------------------------------------------|
D|-------------------------------------------------|
A|-5-5-7-----5-5-7---------5-5-7-----5-5-7-0-0-0-0-| x2
E|--------0--------0-0-0-0--------0----------------|

G|-----------------------------------4--------------6-------------------|
D|-----------------------7--5--4--5-----7--5--7-------------------------|
A|--5--4--5--7--5--4--5-------------------------4-4---4-0-3-3-3-3-3-3-3-| x4
E|----------------------------------------------------------------------|

G|-----------------------------------4-2-0--0-2-4-|
D|-----------------2-0-4-4-4-4-2-2----------------|
A|-3-3-3-3-3-3-3-3--------------------------------| 1,3
E|------------------------------------------------|

G|------------------------------------------------|
D|-----------------2-0-4-4-4-4-2-2-2-2-2-2-2-2-2--|
A|-3-3-3-3-3-3-3-3--------------------------------| 2,4
E|------------------------------------------------|

G|-19--17--16--17--16--14--16--17--16--14------|
D|-----------------------------------------17--|
A|---------------------------------------------| x8
E|---------------------------------------------|

G|-----19--------|
D|-19--------17--|
A|---------------| x4
E|---------------|

G|----------|
D|-17/19\17-|
A|----------|
E|----------|
Suggest correction
Give kudos to tab author, rate the tab!
1 2 3 4 5
comments
print report bad tab
guest
You may want to rate the tab now too:
select rating
Wanna post a correction for this tab? Suggest correction