Oops, an error
Loading. Please wait.

Birth Of A Tyrant - Below The Well Bass Tab

25 views 1 this week
no commentswrite comment
1 2 3 4 5
3 more votes to show rating
add to favorites
launch autoscroll
font size
0
reset
guitar tuner
Autoscroll
slow
fast
+/-
esc
set tempo
stop
Help us to improve Ultimate-Guitar.com Take our survey!
×
Author
Difficulty
Tuning
intermediate
D A D G B E
Birth Of A Tyrant - Below The Well

G|------------------------------------------------------------|
D|------------------------------------------------------------|
A|------------------------------------------------------------|
D|--0--0-------------------------0--0-------------------------|



G|-----------------------------------------------------------|
D|-----------------------------------------------------------|
A|-----------------------------------------------------------|
D|--8--8-------------------------7--7----------5--5----------|  Both lines x2



G|-----|
D|-----|
A|-----|
D|--0--|



G|------------------------|
D|------------------------|
A|------------------------|
D|-1-1-1-1-1---1-1-1-1-1--|  x4
   . . . . .   . . . . .


G|------------------------|
D|------------------------|
A|------------------------|
D|-0-0-0-0-0---0-0-0-0-0--|  x4
   . . . . .   . . . . .


G|-----|
D|--0--|
A|--0--|
D|--0--|
    .


G|--------------------------|
D|--------------------------|
A|222222222222222222222222--|
D|--------------------------| x2



G|--------------------------|
D|--------------------------|
A|444444444444444444444444--|
D|--------------------------| x2

G|-----|
D|-----|
A|-----|
D|--0--|
    .


G|------------------------|
D|------------------------|
A|------------------------|
D|-1-1-1---1-1-1---1-1-1--|  x4
   . . .   . . .   . . .



G|-----------------------------------------------------------|
D|-----------------------------------------------------------|
A|-----------------------------------------------------------|
D|--0--0-------------------------0--0----------0--0----------|  x2



G|-----------------------------------------------------------|
D|-----------------------------------------------------------|
A|-----------------------------------------------------------|
D|--0--0-------------------------8--8----------7--7----------|  x2


G|-------------------------------------------------------|
D|-------------------------------------------------------|
A|-------------------------------------------------------|
D|11111111-1-1-11111111-1-1-1-1-11111111-1-1-11111111-1--|  x2
  ........ . . ........ . . . . ........ . . ........ .


G|-------------------------------------------------------|
D|-------------------------------------------------------|
A|-------------------------------------------------------|
D|00000000-0-0-00000000-0-0-0-0-00000000-0-0-00000000-0--|  x2
  ........ . . ........ . . . . ........ . . ........ .


G|-----|
D|-----|
A|-----|
D|--0--|
    .
Suggest correction
Give kudos to tab author, rate the tab!
1 2 3 4 5
comments
print report bad tab
guest
You may want to rate the tab now too:
select rating
Wanna post a correction for this tab? Suggest correction