Oops, an error
Loading. Please wait.

Bl4Nc - Back From Rehab tab

99 views 1 this week
1 commentread comment
1 2 3 4 5
2 more votes to show rating
add to favorites
×
Save as Personal and add changes to this tab that will be seen only by you. Learn more ›
×
You can save this tab as Personal to edit and correct it or add notes. All changes will be seen only by you. Learn more »
launch autoscroll
font size
0
reset
how to read this tab
guitar tuner
edit
Autoscroll
slow
fast
+/-
esc
set tempo
stop
Author
BACK FROM REHAB - BY BL4NC ©

INTRO x2

|------------------------------------------------------------------|
|------------------------------------------------------------------|
|--------5h7p5h7---------5h7p5h7---------5h7p5h7---------5h7p5h7---|
|---7-7---------h7—-5-5---------h7—-3-3---------h7—-5-5---------h7-|
|---7-7-------------5-5-------------3-3-------------5-5------------|
|---5-5-------------3-3-------------1-1-------------3-3------------|


VERSE x4

|------------------------------------------------------------------|
|------------------------------------------------------------------|
|------------------------------------------------------------------|
|---7-7-7-7-7-7-7-7-5-5-5-5-5-5-5-5-9-9-9-9-9-9-9-9----------------|
|---7-7-7-7-7-7-7-7-5-5-5-5-5-5-5-5—9-9-9-9-9-9-9-9----------------|
|---5-5-5-5-5-5-5-5-3-3-3-3-3-3-3-3-7-7-7-7-7-7-7-7-1-2-3-4-2-3-4-5|


BRIDGE

|----------------------------------------------------------------------|
|----------------------------------------------------------------------|
|----------------------------------------------------------------------|
|---5-5-5-5-7-7-7-7-5-5-5-5-7-7-7-7-5-5-5-5-7-7-7-7-5-5-5-5-9-9-9-9---\|
|---5-5-5-5-7-7-7-7-5-5-5-5-7-7-7-7-5-5-5-5-7-7-7-7-5-5-5-5-9-9-9-9---\|
|---3-3-3-3-5-5-5-5-3-3-3-3-5-5-5-5-3-3-3-3-5-5-5-5-3-3-3-3-7-7-7-7---\|

CHORUS

|-----------------------------------|
|-----------------------------------|
|-------------------5-5-5-5-2-2-2-2-|
|---2-2-2-2-5-5-5-5-5-5-5-5-2-2-2-2-|
|---2-2-2-2-5-5-5-5-3-3-3-3-0-0-0-0-|
|---0-0-0-0-3-3-3-3-----------------|

|-----------------------------------|
|-----------------------------------|
|-------------------5-5-5-5-7-7-7-7-|
|---2-2-2-2-5-5-5-5-5-5-5-5-7-7-7-7-|
|---2-2-2-2-5-5-5-5-3-3-3-3-5-5-5-5-|
|---0-0-0-0-3-3-3-3-----------------|



|-----------------------------------|
|-----------------------------------|
|-------------------5-5-5-5-2-2-2-2-|
|---2-2-2-2-5-5-5-5-5-5-5-5-2-2-2-2-|
|---2-2-2-2-5-5-5-5-3-3-3-3-0-0-0-0-|
|---0-0-0-0-3-3-3-3-----------------|

|-----------------------------------|
|-----------------------------------|
|-------------------7-7-7-7-7-7-7-7-|
|---2-2-2-2-5-5-5-5-7-7-7-7-7-7-7-7-|
|---2-2-2-2-5-5-5-5-5-5-5-5-5-5-5-5-|
|---0-0-0-0-3-3-3-3-----------------|

FILL x2

|------------------------------------------------------------------|
|------------------------------------------------------------------|
|--------5h7p5h7---------5h7p5h7---------5h7p5h7---------5h7p5h7---|
|---7-7---------h7—-5-5---------h7—-3-3---------h7—-5-5---------h7-|
|---7-7-------------5-5-------------3-3-------------5-5------------|
|---5-5-------------3-3-------------1-1-------------3-3------------|

VERSE x4

|------------------------------------------------------------------|
|------------------------------------------------------------------|
|------------------------------------------------------------------|
|---7-7-7-7-7-7-7-7-5-5-5-5-5-5-5-5-9-9-9-9-9-9-9-9----------------|
|---7-7-7-7-7-7-7-7-5-5-5-5-5-5-5-5—9-9-9-9-9-9-9-9----------------|
|---5-5-5-5-5-5-5-5-3-3-3-3-3-3-3-3-7-7-7-7-7-7-7-7-1-2-3-4-2-3-4-5|

BRIDGE

|----------------------------------------------------------------------|
|----------------------------------------------------------------------|
|----------------------------------------------------------------------|
|---5-5-5-5-7-7-7-7-5-5-5-5-7-7-7-7-5-5-5-5-7-7-7-7-5-5-5-5-9-9-9-9---\|
|---5-5-5-5-7-7-7-7-5-5-5-5-7-7-7-7-5-5-5-5-7-7-7-7-5-5-5-5-9-9-9-9---\|
|---3-3-3-3-5-5-5-5-3-3-3-3-5-5-5-5-3-3-3-3-5-5-5-5-3-3-3-3-7-7-7-7---\|







CHORUS

|-----------------------------------|
|-----------------------------------|
|-------------------5-5-5-5-2-2-2-2-|
|---2-2-2-2-5-5-5-5-5-5-5-5-2-2-2-2-|
|---2-2-2-2-5-5-5-5-3-3-3-3-0-0-0-0-|
|---0-0-0-0-3-3-3-3-----------------|

|-----------------------------------|
|-----------------------------------|
|-------------------5-5-5-5-7-7-7-7-|
|---2-2-2-2-5-5-5-5-5-5-5-5-7-7-7-7-|
|---2-2-2-2-5-5-5-5-3-3-3-3-5-5-5-5-|
|---0-0-0-0-3-3-3-3-----------------|



|-----------------------------------|
|-----------------------------------|
|-------------------5-5-5-5-2-2-2-2-|
|---2-2-2-2-5-5-5-5-5-5-5-5-2-2-2-2-|
|---2-2-2-2-5-5-5-5-3-3-3-3-0-0-0-0-|
|---0-0-0-0-3-3-3-3-----------------|

|-----------------------------------|
|-----------------------------------|
|-------------------7-7-7-7-7-7-7-7-|
|---2-2-2-2-5-5-5-5-7-7-7-7-7-7-7-7-|
|---2-2-2-2-5-5-5-5-5-5-5-5-5-5-5-5-|
|---0-0-0-0-3-3-3-3-----------------|

FILL x2

|------------------------------------------------------------------|
|------------------------------------------------------------------|
|--------5h7p5h7---------5h7p5h7---------5h7p5h7---------5h7p5h7---|
|---7-7---------h7—-5-5---------h7—-3-3---------h7—-5-5---------h7-|
|---7-7-------------5-5-------------3-3-------------5-5------------|
|---5-5-------------3-3-------------1-1-------------3-3------------|







SOLO!!!!

    pppppppppppppppppppppppppppppppppppppppp 
|---87558755875587558755875587558755---------------------|
|-----------------------------------87558755-------------|
|--------------------------------------------7b9rb7-5---5|
|-----------------------------------------------------7--|
|--------------------------------------------------------|
|--------------------------------------------------------|

|------------------------------------------------|
|------------------------------------------------|
|---5h6—-5h6--5h6--5h6---------------------------|
|------7~---7~---7~---7~-7-5---------------------|
|----------------------------7-5-----------------|
|--------------------------------8-7-5-5-8-7-5-5-|

|--------------------------------------5-5-7-8-|
|--------------------------7~-5~-7~-5~---------|
|--------------------------7~-5~-7~-5~---------|
|---------------------5-7~---------------------|
|-------5h7-----5h7-7--------------------------|
|---5h8-----5h8--------------------------------|

|---20b22-20b22-20b22-20b22-20-19-17-------------------------------|
|------------------------------------20-19-17----------------------|
|---------------------------------------------19~-17-19~~17-----17-|
|-----------------------------------------------------------19-----|
|------------------------------------------------------------------|
|------------------------------------------------------------------|

|---20-20-20-20-20-20-20-20-20-20-20-20-20-20-20-20\-|
|---17-17-17-17-17-17-17-17-17-17-17-17-17-17-17-17\-|
|----------------------------------------------------|
|----------------------------------------------------|
|----------------------------------------------------|
|----------------------------------------------------|

|----------------------------------------------------|
|---17-17-17-17-17-17-17-17-17-17-17-17-17-17-17-17\-|
|---19-19-19-19-19-19-19-19-19-19-19-19-19-19-19-19\-|
|----------------------------------------------------|
|----------------------------------------------------|
|----------------------------------------------------|

|----------------------------------------------------|
|---17-17-17-17-17-17-17-17-17-17-17-17-17-17-17-17\-|
|---17-17-17-17-17-17-17-17-17-17-17-17-17-17-17-17\-|
|----------------------------------------------------|
|----------------------------------------------------|
|----------------------------------------------------|

|----------------------------------------------------|
|---17-17-17-17-17-17-17-17-17-17-17-17-17-17-17-17\-|
|---16-16-16-16-16-16-16-16-16-16-16-16-16-16-16-16\-|
|----------------------------------------------------|
|----------------------------------------------------|
|----------------------------------------------------|

|---0h3h5-h0h3h5-0h5h7-0h5h7-0h7h9-0h7h9-0h9h12-0h9h12-|
|------------------------------------------------------|
|------------------------------------------------------|
|------------------------------------------------------|
|------------------------------------------------------|
|------------------------------------------------------|

|---0h12h15-0h12h15-0h15h17-0h15h17-0h17h19-0h17h19-22b24\\\-|
|------------------------------------------------------------|
|------------------------------------------------------------|
|------------------------------------------------------------|
|------------------------------------------------------------|
|------------------------------------------------------------|

DRUM SOLO

BASS SOLO



FILL x2

|------------------------------------------------------------------|
|------------------------------------------------------------------|
|--------5h7p5h7---------5h7p5h7---------5h7p5h7---------5h7p5h7---|
|---7-7---------h7—-5-5---------h7—-3-3---------h7—-5-5---------h7-|
|---7-7-------------5-5-------------3-3-------------5-5------------|
|---5-5-------------3-3-------------1-1-------------3-3------------|




VERSE x4

|------------------------------------------------------------------|
|------------------------------------------------------------------|
|------------------------------------------------------------------|
|---7-7-7-7-7-7-7-7-5-5-5-5-5-5-5-5-9-9-9-9-9-9-9-9----------------|
|---7-7-7-7-7-7-7-7-5-5-5-5-5-5-5-5—9-9-9-9-9-9-9-9----------------|
|---5-5-5-5-5-5-5-5-3-3-3-3-3-3-3-3-7-7-7-7-7-7-7-7-1-2-3-4-2-3-4-5|

BRIDGE

|----------------------------------------------------------------------|
|----------------------------------------------------------------------|
|----------------------------------------------------------------------|
|---5-5-5-5-7-7-7-7-5-5-5-5-7-7-7-7-5-5-5-5-7-7-7-7-5-5-5-5-9-9-9-9---\|
|---5-5-5-5-7-7-7-7-5-5-5-5-7-7-7-7-5-5-5-5-7-7-7-7-5-5-5-5-9-9-9-9---\|
|---3-3-3-3-5-5-5-5-3-3-3-3-5-5-5-5-3-3-3-3-5-5-5-5-3-3-3-3-7-7-7-7---\|

CHORUS

|-----------------------------------|
|-----------------------------------|
|-------------------5-5-5-5-2-2-2-2-|
|---2-2-2-2-5-5-5-5-5-5-5-5-2-2-2-2-|
|---2-2-2-2-5-5-5-5-3-3-3-3-0-0-0-0-|
|---0-0-0-0-3-3-3-3-----------------|

|-----------------------------------|
|-----------------------------------|
|-------------------5-5-5-5-7-7-7-7-|
|---2-2-2-2-5-5-5-5-5-5-5-5-7-7-7-7-|
|---2-2-2-2-5-5-5-5-3-3-3-3-5-5-5-5-|
|---0-0-0-0-3-3-3-3-----------------|





|-----------------------------------|
|-----------------------------------|
|-------------------5-5-5-5-2-2-2-2-|
|---2-2-2-2-5-5-5-5-5-5-5-5-2-2-2-2-|
|---2-2-2-2-5-5-5-5-3-3-3-3-0-0-0-0-|
|---0-0-0-0-3-3-3-3-----------------|

|-----------------------------------|
|-----------------------------------|
|-------------------7-7-7-7-7-7-7-7-|
|---2-2-2-2-5-5-5-5-7-7-7-7-7-7-7-7-|
|---2-2-2-2-5-5-5-5-5-5-5-5-5-5-5-5-|
|---0-0-0-0-3-3-3-3-----------------|

|------------------------------------------------------------------|
|------------------------------------------------------------------|
|--------5h7p5h7---------5h7p5h7---------5h7p5h7---------5h7p5h7---|
|---7-7---------h7—-5-5---------h7—-3-3---------h7—-5-5---------h7-|
|---7-7-------------5-5-------------3-3-------------5-5------------|
|---5-5-------------3-3-------------1-1-------------3-3------------|

|-------|
|-------|
|-------| 
|---7x--|
|---7x--| END ON THAT NOTE, MUTE STRAIGHT AFTER.
|---5x--|




GUITAR LEGEND

b- bend
rb- release bend
x- mute
h- hammer on
p- pull off
~- vibrato
\- slide down


Suggest correction
Creating personal tab
Creating personal tab
You can edit any tab online and save it as your Personal.

You can edit, replace or remove any tab part or add personal notes – all changes will be seen only by you.

Personal tabs can be accessed anytime from any device, even offline.
Learn more »
Give kudos to tab author, rate the tab!
1 2 3 4 5
comments
print report bad tab
1 comment total.
0 reply
onion-bargee 10 Mar 19, 2007 10:03 AM

wkd!!

guest
You may want to rate the tab now too:
select rating
Wanna post a correction for this tab? Suggest correction