Oops, an error
Loading. Please wait.

Blacktop Manhattan - Hollywise intro tab

version 1
version 1

Intro

Whole song

Interactive

8,268 views 3 this week
3 commentsread comments
1 2 3 4 5
x 4
add to favorites
×
Save as Personal and add changes to this tab that will be seen only by you. Learn more ›
×
You can save this tab as Personal to edit and correct it or add notes. All changes will be seen only by you. Learn more »
launch autoscroll
font size
0
reset
how to read this tab
guitar tuner
edit
Autoscroll
slow
fast
+/-
esc
set tempo
stop
Author
Difficulty
Hi,

Since there isn't a single tab from hollywise on the internet, I decided to put 
the intro online, because that's the only part of which I'm sure.
For any corrections or tips, mail at: lemmens_gert@hotmail.com
Enjoy!

#####################################
#Band: Blacktop Manhattan or just BM#
#Song: Hollywise                    #
#Put Distortion ON                  #
#####################################

E|---------------------------|--------------------------|
B|---------------------------|--------------------------|
G|---------------------------|--------------------------|
D|---------------------------|--------------------------|  x2
A|-1--4--4--3--3-1--4--8--6--|---1--4--4--3-1--4--8--6--|
E|---------------------------|--------------------------|


You can play it with 2 strings too, then you play it like this:

E|---------------------------|--------------------------|
B|---------------------------|--------------------------|
G|---------------------------|--------------------------|
D|-3--6--6--5--5-3--6--10-8--|---3--6--6--5-3--6--10-8--|  x2
A|-1--4--4--3--3-1--4--8--6--|---1--4--4--3-1--4--8--6--|
E|---------------------------|--------------------------|

But, you can also play it with two guitars, then you can experiment a bit, one can 
play the "A" string, while the other one plays the "D" string.
Or you can just both play the same.

Have fun with this quite simple but good sounding intro!

Made by Bladerkeuh
Suggest correction
Creating personal tab
Creating personal tab
You can edit any tab online and save it as your Personal.

You can edit, replace or remove any tab part or add personal notes – all changes will be seen only by you.

Personal tabs can be accessed anytime from any device, even offline.
Learn more »
comments
print report bad tab
3 comments total.
0 reply
Rock&MetalLover 10 Mar 01, 2008 04:58 AM

look i have just looked at the tab it looks good and sounds good to i need thou a bit explanesion how to play in the middel of the song it looks like u missed that part my hotmail is seva_sidrov@hotmail.com nice tab:

0 reply
Bladerkeuh 126 Mar 04, 2008 09:14 AM

Hey, well, I only tabbed out the intro because I wasn't sure about the rest of the song ;)
Greetz

0 reply
gr33nd4yr0ck5 10 Mar 19, 2008 02:21 PM

it looks like u need a

|-1--1/4--4--3--|

guest
You may want to rate the tab now too:
select rating
Wanna post a correction for this tab? Suggest correction