Oops, an error
Loading. Please wait.

Blake Ellis - Tell Me tab

49 views 1 this week
no commentswrite comment
1 2 3 4 5
3 more votes to show rating
add to favorites
×
Save as Personal and add changes to this tab that will be seen only by you. Learn more ›
×
You can save this tab as Personal to edit and correct it or add notes. All changes will be seen only by you. Learn more »
launch autoscroll
font size
0
reset
how to read this tab
guitar tuner
edit
Autoscroll
slow
fast
+/-
esc
set tempo
stop
[Intro]

     Am          F               C           G                                    
e|--------------------------------------------------------------------------|
B|---0h8----8----8~---8------8---0h8----8----0~-------0---------------------|
G|---9------9----9~---9------9---0------0----0~-------0---------------------|(same thing as chorus)
D|---9----------10~------10-------------------------------------------------|
A|------------------------------10----------------0h9-----------------------|
E|------------------------------------------10~-----------------------------|


[Chorus 1]

     Am          F               C           G                                    
e|--------------------------------------------------------------------------|
B|---0h8----8----8~---8------8---0h8----8----0~-------0---------------------|
G|---9------9----9~---9------9---0------0----0~-------0---------------------| 
D|---9----------10~------10-------------------------------------------------|
A|------------------------------10----------------0h9-----------------------|
E|------------------------------------------10~-----------------------------|                       
                             
Tell me you want me, tell me to stay 
Tell me you wouldn't have it any other way
Tell me im all yours, tell me today
Tell right now before i turn and walk away


[Verse 1]
      C          F                Am        G                                 
e|---------------------------------------------------------------------------|
B|---0h8----8----9~---8------8----0h8---8---0~--------0----------------------|
G|---0------0----8~---9------9----9-----9---0~--------0----------------------|
D|--------------10~------10-------9------------------------------------------|
A|--10------------------------------------------0h9--------------------------|
E|-----------------------------------------10~-------------------------------|

I've been thinking, overthinking 
Every little thing you say and do 
I've been thinking, overthinking
When you looked at me and said you felt it too


[Chorus 2]

     Am          F               C           G                                    
e|--------------------------------------------------------------------------|
B|---0h8----8----8~---8------8---0h8----8----0~-------0---------------------|
G|---9------9----9~---9------9---0------0----0~-------0---------------------| 
D|---9----------10~------10-------------------------------------------------|
A|------------------------------10----------------0h9-----------------------|
E|------------------------------------------10~-----------------------------|  

Tell me you love me, tell me to stay
Grab me around my waist don't let me walk away
Tell me I'm all yours, tell me today
Tell me i warm your soul when skies are cloudy grey


[Verse 2]
      C          F                Am        G                                 
e|---------------------------------------------------------------------------|
B|---0h8----8----9~---8------8----0h8---8---0~--------0----------------------|
G|---0------0----8~---9------9----9-----9---0~--------0----------------------|
D|--------------10~------10-------9------------------------------------------|
A|--10------------------------------------------0h9--------------------------|
E|-----------------------------------------10~-------------------------------|

I pray you fell the same
Cause I've been thinking about giving you my last name
This world is full of crazy things but the most insane must be
Waking up without you next to me
I don't wanna wake without you next to me


[Chorus 3]

     Am          F               C           G                                    
e|--------------------------------------------------------------------------|
B|---0h8----8----8~---8------8---0h8----8----0~-------0---------------------|
G|---9------9----9~---9------9---0------0----0~-------0---------------------| 
D|---9----------10~------10-------------------------------------------------|
A|------------------------------10----------------0h9-----------------------|
E|------------------------------------------10~-----------------------------|

Tell me you love me and that will never change
Tell me that I'm the one you call your ball and chain
Tell I'm all yours and your here to stay
Tell me you'll die if we don't kiss every day


[Verse 3]

      C          F                Am        G                                 
e|---------------------------------------------------------------------------|
B|---0h8----8----9~---8------8----0h8---8---0~--------0----------------------|
G|---0------0----8~---9------9----9-----9---0~--------0----------------------|
D|--------------10~------10-------9------------------------------------------|
A|--10------------------------------------------0h9--------------------------|
E|-----------------------------------------10~-------------------------------|

I'll be the mister if you'll be the misses 
And I'll be the wizard to grant you all of your wishes
Follow me alone we'll tip toe down this golden road
When we finally get to home I'll put the queen atop her throne


[Chorus 4]

     Am          F               C           G                                    
e|--------------------------------------------------------------------------|
B|---0h8----8----8~---8------8---0h8----8----0~-------0---------------------|
G|---9------9----9~---9------9---0------0----0~-------0---------------------| 
D|---9----------10~------10-------------------------------------------------|
A|------------------------------10----------------0h9-----------------------|
E|------------------------------------------10~-----------------------------|

I'll tell her i love you everyday
I'll come home with chocolates and a red bouquet 
We'll get through the hard times, we'll never fray
We'll stay in color while the world's in black 'n' gray

Tell me you want me, tell me to stay
Grab me around my waist,, don't let me walk away
Tell me you'll love me till our final days
Cause I've hoping that you'll marry me someday 
I've been hoping that you'll marry me someday



************************************

| h  Hammer-on
| ~  Vibrato

************************************

            
            
Suggest correction
Creating personal tab
Creating personal tab
You can edit any tab online and save it as your Personal.

You can edit, replace or remove any tab part or add personal notes – all changes will be seen only by you.

Personal tabs can be accessed anytime from any device, even offline.
Learn more »
Give kudos to tab author, rate the tab!
1 2 3 4 5
comments
print report bad tab
guest
You may want to rate the tab now too:
select rating
Wanna post a correction for this tab? Suggest correction