Oops, an error
Loading. Please wait.

Blatz - Hustler Tab

312 views 1 this week
no commentswrite comment
1 2 3 4 5
please rate
add to favorites
launch autoscroll
font size
0
reset
how to read this tab
guitar tuner
Tab Pro tools
  • play this tab
  • loop segment
  • change instrument
  • show fretboard
  • metronome
×
Best way to learn
"Blatz - Hustler"
Autoscroll
slow
fast
+/-
esc
set tempo
stop
Contributor
Difficulty
novice
-------------------------------------------------------------------------------
                             Hustler - Blatz
-------------------------------------------------------------------------------
Tabbed by: Keegan Alexander
Email:wass125@yahoo.com
Some Mistakes My First Tab Corrections Welcome

Tuning: Standard (eBGDAE)

Intro 
e|---------------------------------------------------------------------------|
B|---------------------------------------------------------------------------|
G|-6-------------------------------------------------------------------------|
D|-6 Let Ring During Bass Maybe Some Whammy----------------------------------|
A|-4-------------------------------------------------------------------------|
E|---------------------------------------------------------------------------|
Riff 1
e|---------------------------------------------------------------------------|
B|---------------------------------------------------------------------------|
G|--6-6-6-6/--8-8-8-8--------------------------------------------------------|
D|--6-6-6-6/--8-8-8-8--8-8-8-8--6-6-6-6--------------------------------------|
A|--4-4-4-4/--6-6-6-6--8-8-8-8--6-6-6-6--------------------------------------|
E|---------------------6-6-6-6--4-4-4-4--------------------------------------|
Riff2
e|---------------------------------------------------------------------------|
B|---------------------------------------------------------------------------|
G|--3-3-3-3/--5-5-5-5/--7---7---9\---3---------------------------------------|
D|--3-3-3-3/--5-5-5-5/--7---7---9\---3---------------------------------------|
A|--1-1-1-1/--3-3-3-3/--5---5---7\---1---------------------------------------|
E|---------------------------------------------------------------------------|
Riff 3                      x
e|---------------------------------------------------------------------------|
B|---------------------------------------------------------------------------|
G|--6~~~~~~/--8--------------------------------------------------------------|
D|--6~~~~~~/--8-8-8-8-8--6-6-6-6---------------------------------------------|
A|--4~~~~~~/--6-8-8-8-8--6-6-6-6---------------------------------------------|
E|--------------6-6-6-6--4-4-4-4---------------------------------------------|
Riff 4
e|---------------------------------------------------------------------------|
B|---------------------------------------------------------------------------|
G|--3--3/---5--5/---7--7/---9--9\---3----------------------------------------|
D|--3--3/---5--5/---7--7/---9--9\---3----------------------------------------|
A|--1--1/---3--3/---5--5/---7--7\---1----------------------------------------|
E|---------------------------------------------------------------------------|
Outro
e|---------------------------------------------------------------------------|
B|---------------------------------------------------------------------------|
G|-6--6--6~~~~~--------------------------------------------------------------|
D|-6--6--6~~~~~--------------------------------------------------------------|
A|-4--4--4~~~~~--------------------------------------------------------------|
E|-----------------**** Pick Slide ****---------------------------------------|

#Order#
Intro
Riff 1   x2
Riff 2   x2 
Riff 1   x2
Riff 3   x2
Riff 1   x2
Riff 4   x2
Riff 1   x2 
Riff 3   x2
Riff 1   x2
Riff 4   x2
Riff 1   x2
Riff 1   x2  *Muted*
Riff 3   x2
Outro
| /  Slide Up
| \  Slide Down
| ~  Whammy Down To Strings
| x  Mute Note
===============================================================================
http://lookout.littletype.com/blatz-lkb-grpcat.php
comments
We did not receive enough feedback on this tab! Please rate:
print report bad tab
1 2 3 4 5
I want to post or [tab]
guest
You may want to rate the tab now too:
select rating
Please do not post tabs as comments. Select "correction" instead!