Oops, an error
Loading. Please wait.

Bleeding Angels Cry - Cold November Tab

92 views 1 this week
no commentswrite comment
1 2 3 4 5
please rate
add to favorites
launch autoscroll
font size
0
reset
how to read this tab
guitar tuner
Tab Pro tools
  • play this tab
  • loop segment
  • change instrument
  • show fretboard
  • metronome
Autoscroll
slow
fast
+/-
esc
set tempo
stop
Difficulty
intermediate
Intro
Guitar 1
e|-----------------------------------------------------|
B|-----------------------------------------------------|
G|-----------------------------------------------------|
D|-----------------------------------------------------|
A|----6--7----6--7----7---6-----6--7----6--7----6----7-|
E|--7-------7-------7---6-----7-------7-------6----7---|

Guitar 2
e|--0--5--0--5----------5--0--5--0--5--7--7--7--5--0-----|
B|--------------6-----6--------------------------------0-|
G|-----------------7-------------------------------------|
D|-------------------------------------------------------|
A|-------------------------------------------------------|
E|-------------------------------------------------------|

Verse  (x2)
Guitar 1
e|--10----10-----0-----0----12----12----0------0-----12-----12----|
B|-----12----12-----8----8-----0-----0----10-----10-----10-----10-|
G|----------------------------------------------------------------|
D|----------------------------------------------------------------|
A|----------------------------------------------------------------|
E|----------------------------------------------------------------|

Guitar 2
e|-----------------------------------------------------|
B|-----------------------------------------------------|
G|-----------------------0-------0---------------------|
D|-----4----4----4----4----0---0----4-----4-----4----4-|
A|--2-----0----2----0--------0---------2-----0-----4---|
E|-----------------------------------------------------|

Pre Chorus
Guitar 1
e|------------------------------------------|
B|------------------------------------------|
G|----------5c------------------------------|
D|--7c--9c--5c----4--4--4--2--2--2----------|
A|--7c--9c--------4--4--4--2--2--2--7--6--7-|
E|----------------2--4--4--0--2--2----------|

Guitar 2
e|------------------------------------------------------------------|
B|------------------------------------------------------------------|
G|------------------------------------------------------------------|
D|----7----7----7----7----9----9----9----9--------------------------|
A|--7----7----7----7----9----9----9----9-----7-7-7-7-6-6-6-6--------|
E|----------------------------------------------------------2-2-2-2-|
                                             ........................PM
Chorus   (x2)
Guitar 1
e|-------------------------------------------------------------|
B|-------------------------------------------------------------|
G|-------------------------------------------------------------|
D|-------------------------7--9--7--9--------------------------|
A|--5--5--5----5--5--5------------------7--7--7-----7--7--7----|
E|-----------7----------7-----------------------9-----------9--|

Guitar 2
e|-----------------------------------------------------|
B|---0-------2-----------------------------0---2---2---|
G|-----0---2------4--2--4--2--4--2--4--2-----2---4---0-|
D|-----------------------------------------------------|
A|-----------------------------------------------------|
E|-----------------------------------------------------|

Verse  (x2)
Guitar 1
e|--10----10-----0-----0----12----12----0------0-----12-----12----|
B|-----12----12-----8----8-----0-----0----10-----10-----10-----10-|
G|----------------------------------------------------------------|
D|----------------------------------------------------------------|
A|----------------------------------------------------------------|
E|----------------------------------------------------------------|

Guitar 2
e|-----------------------------------------------------|
B|-----------------------------------------------------|
G|-----------------------0-------0---------------------|
D|-----4----4----4----4----0---0----4-----4-----4----4-|
A|--2-----0----2----0--------0---------2-----0-----4---|
E|-----------------------------------------------------|

Pre Chorus
Guitar 1
e|------------------------------------------|
B|------------------------------------------|
G|----------5c------------------------------|
D|--7c--9c--5c----4--4--4--2--2--2----------|
A|--7c--9c--------4--4--4--2--2--2--7--6--7-|
E|----------------2--4--4--0--2--2----------|

Guitar 2
e|------------------------------------------------------------------|
B|------------------------------------------------------------------|
G|------------------------------------------------------------------|
D|----7----7----7----7----9----9----9----9--------------------------|
A|--7----7----7----7----9----9----9----9-----7-7-7-7-6-6-6-6--------|
E|----------------------------------------------------------2-2-2-2-|
                                             ........................PM
Bridge   (x2)
Guitar 1
e|----------------------------------------------------------|
B|----------------------------------------------------------|
G|----------------------------------------------------------|
D|--2-----------5--------------4--------------9-----------9-|
A|--2-----------5--------------4--------------9--9--9--9--9-|
E|--0--0--0--0--0--2--2--2--2--2--7--7--7--7--7-----------7-|

Guitar 2
e|---------------------------------------------------------------|
B|---------------------------------------------------------------|
G|--7--0---0--9----0--7--0----7--0--9---------0--7--0----9--0--9-|
D|-------9-----------------9-------------9------------9----------|
A|---------------------------------------------------------------|
E|---------------------------------------------------------------|

Chorus   (x2)
Guitar 1
e|-------------------------------------------------------------|
B|-------------------------------------------------------------|
G|-------------------------------------------------------------|
D|-------------------------7--9--7--9--------------------------|
A|--5--5--5----5--5--5------------------7--7--7-----7--7--7----|
E|-----------7----------7-----------------------9-----------9--|

Guitar 2
e|-----------------------------------------------------|
B|---0-------2-----------------------------0---2---2---|
G|-----0---2------4--2--4--2--4--2--4--2-----2---4---0-|
D|-----------------------------------------------------|
A|-----------------------------------------------------|
E|-----------------------------------------------------|





comments
We did not receive enough feedback on this tab! Please rate:
print report bad tab
1 2 3 4 5
I want to post or [tab]
guest
You may want to rate the tab now too:
select rating
Please do not post tabs as comments. Select "correction" instead!