Oops, an error
Loading. Please wait.

Bless The Fallen - Albright Tab

4,668 views 3 this week
5 commentsread comments
1 2 3 4 5
excellent!
x 2
add to favorites
launch autoscroll
font size
0
reset
how to read this tab
guitar tuner
Tab Pro tools
  • play this tab
  • loop segment
  • change instrument
  • show fretboard
  • metronome
Autoscroll
slow
fast
+/-
esc
set tempo
stop
Contributor
Tuning
Tabbers playing skills
C G C F A D
intermediate ++
Artist - Bless The Fallen
Song - Albright

Tuning - CGCFAD (drop C)





                   PM PM PM PM PM PM    PM       PM    PM PM PM PM PM  
      H            E  E  E  E  E  E  E  E     E  E  E  E  E  E  E  E   
D||-------------|--------------------------|--------------------------|
A||-------------|--------------------------|--------------------------|
F||-------------|--------------------------|--------------------------|
C||-------------|--------------------------|--------------------------|
G||-------------|-----------------------0--|-----0-----0--------------|
C||--12\--------|--0--0--0--0--0--0-----0--|-----0-----0--0--0--0--0--|
 
 
  PM PM    PM    PM    PM    PM PM PM PM PM PM    PM  
  E  E  E  E  E  E  E  E     E  E  E  E  E  E  E  E   
--------------------------|--------------------------|
--------------------------|--------------------------|
--------------------------|--------------------------|
--------------------------|--------------------------|
-----------0-----0-----0--|-----------------------0--|
--0--0-----0-----0-----0--|--0--0--0--0--0--0-----0--|
 
 
     PM    PM PM PM PM PM    PM PM PM PM PM   PH         
  E  E  E  E  E  E  E  E     E  E  S  S  E    H          
--------------------------|-----------------------------|
--------------------------|-----------------------------|
--------------------------|-----------------------------|
--------------------------|-----------------------------|
-----0-----0--------------|--------0--0--0--------------|
-----0-----0--0--0--0--0--|--0--0--0--0--0--<>3~--------|
 
 
  PM PM PM PM PM PM    PM       PM    PM PM PM PM PM  
  E  E  E  E  E  E  E  E     E  E  E  E  E  E  E  E   
--------------------------|--------------------------|
--------------------------|--------------------------|
--------------------------|--------------------------|
--------------------------|--------------------------|
-----------------------0--|-----0-----0--------------|
--0--0--0--0--0--0-----0--|-----0-----0--0--0--0--0--|
 
 
  PM PM    PM    PM    PM    PM PM PM PM PM PM    PM  
  E  E  E  E  E  E  E  E     E  E  E  E  E  E  E  E   
--------------------------|--------------------------|
--------------------------|--------------------------|
--------------------------|--------------------------|
--------------------------|--------------------------|
-----------0-----0-----0--|-----------------------0--|
--0--0-----0-----0-----0--|--0--0--0--0--0--0-----0--|
 
 
     PM    PM PM PM PM PM    PM PM PM PM PM PM PM PM PM PM PM  
  E  E  E  E  E  E  E  E     E  E  S  S  E  S  S  E  S  S  E   
--------------------------|-----------------------------------|
--------------------------|-----------------------------------|
--------------------------|-----------------------------------|
--------------------------|-----------------------------------|
-----0-----0--------------|--------0--0--0--0--0--0--0--0--0--|
-----0-----0--0--0--0--0--|--0--0--0--0--0--0--0--0--0--0--0--|
 
 
                        PM PM PM PM PM PM PM PM    PM PM PM PM PM PM PM PM  
  W                     E  E  E  E  E  E  E  E     E  E  E  E  E  E  E  E   
-------------------||---------------------------|--------------------------|
-------------------||---------------------------|--------------------------|
-------------------||*--------------------------|--------------------------|
--0----------------||*--------------------------|--------------------------|
--0----------------||---------------------------|--------------------------|
--0----------------||---0--0--0--0--0--0--0--0--|--0--0--0--0--0--0--0--0--|
 
 
                 PM PM    PM PM PM PM PM PM PM PM                         
  Q.     Q    E  E  E     E  E  E  E  E  E  E  E     Q.     Q    Q    E   
-----------------------|--------------------------|----------------------|
-----------------------|--------------------------|----------------------|
-----------------------|--------------------------|----------------------|
--8------7----5--------|--------------------------|--8------7----5----3--|
--8------7----5--------|--------------------------|--8------7----5----3--|
--8------7----5--0--0--|--0--0--0--0--0--0--0--0--|--8------7----5----3--|
 
 
                  PM PM PM PM PM PM PM PM           PM PM PM PM       
  Q    Q          E  E  E  E  E  E  E  E     Q.     S  S  E  E  Q     
--------------||--------------------------|--------------------------|
--------------||--------------------------|--------------------------|
------------*-||--------------------------|--------------------------|
-------5----*-||--------------------------|--------------------------|
--L----5------||--------------------------|---------0--0--0--0-------|
--L----5------||--0--0--0--0--0--0--0--0--|---------0--0--0--0-------|
 
 
  PM PM PM PM PM PM PM PM           PM PM PM PM   PH     
  E  E  E  E  E  E  E  E     Q.     S  S  E  E    Q      
--------------------------|-----------------------------|
--------------------------|-----------------------------|
--------------------------|-----------------------------|
--------------------------|-----------------------------|
--------------------------|---------0--0--0--0----------|
--0--0--0--0--0--0--0--0--|---------0--0--0--0--<>3~----|
 
 
  PM PM PM PM PM PM PM PM           PM PM PM PM       
  E  E  E  E  E  E  E  E     Q.     S  S  E  E  Q     
--------------------------|--------------------------|
--------------------------|--------------------------|
--------------------------|--------------------------|
--------------------------|--------------------------|
--------------------------|---------0--0--0--0-------|
--0--0--0--0--0--0--0--0--|---------0--0--0--0-------|
 
 
  PM PM PM PM PM PM PM PM                                          
  E  E  E  E  E  E  E  E     Q.     Q.     Q       Q    Q    Q     
--------------------------|---------------------|-----------------|
--------------------------|---------------------|-----------------|
--------------------------|---------------------|-----------------|
--------------------------|---------8------7----|--5----3----5----|
--------------------------|---------8------7----|--5----3----5----|
--0--0--0--0--0--0--0--0--|---------8------7----|--5----3----5----|
 
 
    PM PM PM PM PM PM PM PM    PM PM PM PM PM PM PM PM                   PM PM  
    E  E  E  E  E  E  E  E     E  E  E  E  E  E  E  E     Q.     Q    E  E  E   
|---------------------------|--------------------------|-----------------------|
|---------------------------|--------------------------|-----------------------|
|*--------------------------|--------------------------|-----------------------|
|*--------------------------|--------------------------|--8------7----5--------|
|---------------------------|--------------------------|--8------7----5--------|
|---0--0--0--0--0--0--0--0--|--0--0--0--0--0--0--0--0--|--8------7----5--0--0--|
 
 
  PM PM PM PM PM PM PM PM                                         
  E  E  E  E  E  E  E  E     Q.     Q    Q    E     Q    Q        
--------------------------|----------------------|--------------||
--------------------------|----------------------|--------------||
--------------------------|----------------------|------------*-||
--------------------------|--8------7----5----3--|-------5----*-||
--------------------------|--8------7----5----3--|--L----5------||
--0--0--0--0--0--0--0--0--|--8------7----5----3--|--L----5------||
 
 
                       PM PM PM PM PM PM PM PM           PM PM PM PM       
  Q    H.              E  E  E  E  E  E  E  E     Q.     S  S  E  E  Q     
--------------------|--------------------------|--------------------------|
--------------------|--------------------------|--------------------------|
--------------------|--------------------------|--------------------------|
--0-----------------|--------------------------|--------------------------|
--0-----------------|--------------------------|---------0--0--0--0-------|
--0-----------------|--0--0--0--0--0--0--0--0--|---------0--0--0--0-------|
 
 
  PM PM PM PM PM PM PM PM           PM PM PM PM   PH     
  E  E  E  E  E  E  E  E     Q.     S  S  E  E    Q      
--------------------------|-----------------------------|
--------------------------|-----------------------------|
--------------------------|-----------------------------|
--------------------------|-----------------------------|
--------------------------|---------0--0--0--0----------|
--0--0--0--0--0--0--0--0--|---------0--0--0--0--<>3~----|
 
 
  PM PM PM PM PM PM PM PM           PM PM PM PM       
  E  E  E  E  E  E  E  E     Q.     S  S  E  E  Q     
--------------------------|--------------------------|
--------------------------|--------------------------|
--------------------------|--------------------------|
--------------------------|--------------------------|
--------------------------|---------0--0--0--0-------|
--0--0--0--0--0--0--0--0--|---------0--0--0--0-------|
 
 
    PM PM    PM    PM    PM       PM    PM                
                                           |--3--|        
    E  E  E  E  E  E  E  E     E  E  E  E  E  E  E  Q     
|---------------------------|----------------------------|
|---------------------------|----------------------------|
|*--------------------------|----------------------------|
|*--------3-----2-----0-----|--------------2--3--2--0----|
|---------------------------|--3-----1--------------0----|
|---0--0-----0-----0-----0--|-----0-----0-----------0----|
 
 
  PM PM    PM    PM    PM       PM    PM                 
                                         |--3--|         
  E  E  E  E  E  E  E  E     E  E  E  E  E  E  E   Q     
--------------------------|-----------------------------|
--------------------------|-----------------------------|
--------------------------|-----------------------------|
--------3-----2-----0-----|--------------2--3--2--10----|
--------------------------|--3-----1--------------10----|
--0--0-----0-----0-----0--|-----0-----0-----------10----|
 
 
  PM PM    PM    PM    PM       PM    PM                
                                         |--3--|        
  E  E  E  E  E  E  E  E     E  E  E  E  E  E  E  Q     
--------------------------|----------------------------|
--------------------------|----------------------------|
--------------------------|-----------------------3----|
--------3-----2-----0-----|--------------2--3--2--3----|
--------------------------|--3-----1--------------1----|
--0--0-----0-----0-----0--|-----0-----0----------------|
 
 
  PM PM    PM    PM    PM       PM    PM   PH                         
  E  E  E  E  E  E  E  E     E  E  E  E    H                          
--------------------------|----------------------------||-----------||
--------------------------|----------------------------||-----------||
--------------------------|--------------<>3~--------*-||-----------||
--------3-----2-----0-----|--------------------------*-||-----------||
--------------------------|--3-----1-------------------||-----------||
--0--0-----0-----0-----0--|-----0-----0----------------||-----------||

PM.............
------------------------------------
------------------------------------
------------------------------------
-----------------------------------0
-0-0-0-0-0-0-0-0-5h7-5h7-5h7-5h7-3-0
-0-0-0-0-0-0-0-0-------------------0
 PM
------
------
------
---0~-
-0-0~-
-0-0~-

------------------------------
---------12-12-12-12----12-12-
---------15-15-15-15----15-15-
------------------------------
-0-0-0-0-------------0-0------
-0-0-0-0-------------0-0------
 
 
you can figure out the rhythm and order of the last bits, the notes are all there.

Duration Legend
---------------
W - whole
H - half
Q - quarter
E - 8th
S - 16th
T - 32nd
X - 64th
. - note dotted
|-n-|  - n-tuplets
 
 
Tablature Legend
----------------
L - tied note
x - dead note
g - grace note
(n) - ghost note
> - accentuded note
NH - natural harmonic
AH - artificial harmonic
TH - tapped harmonic
SH - semi harmonic
PH - pitch harmonic
h - hammer on
p - pull off
b - bend
br - bendRelease
pb - preBend
pbr - preBendRelease
brb - bendReleaseBend
\n/ - tremolo bar dip
\n - tremolo bar dive
-/n - tremolo bar Release up
/n\ - tremolo bar inverted dip
/n - tremolo bar return
-\n - tremolo bar Release down
S - shift slide
s - legato slide
/ -  slide into from below or out of upwards
\ -  slide into from above or out of downwards
~ - vibrato
W - wide vibrato
tr - tril'
TP - tremolo picking
T - tapping
S - slap
P - pop
< - fade in
^ - brush up
v - brush down
comments
We did not receive enough feedback on this tab! Please rate:
print report bad tab
1 2 3 4 5
5 comments total. Showing first comments.
0 reply
metalheadrenzo wrote on May 20 2008, 12:33 am

nice tab

0 reply
Jay993 wrote on May 27 2008, 07:55 pm

ur off on sum parts i think(if ur an ex BTF memeber then i feel dumb for corecting u) but this tab helped me finaly figure out the 1 mistake i was making

0 reply
Jay993 wrote on May 27 2008, 08:00 pm

|--3--|
E E E E E E E E E E E E E E E Q
|---------------------------|----------------------------|
|---------------------------|----------------------------|
|*--------------------------|----------------------------|
|*--------3-----2-----0-----|--------------2--3--2--0----|
|---------------------------|--3-----1--------------0----|
|---0--0-----0-----0-----0--|-----0-----0-----------0----|


PM PM PM PM PM PM PM
|--3--|
E E E E E E E E E E E E E E E Q
--------------------------|-----------------------------|
--------------------------|-----------------------------|
--------------------------|-----------------------3-----|
--------3-----2-----0-----|--------------2--3--2--3-----|
--------------------------|--3-----1--------------1-----|
--0--0-----0-----0-----0--|-----0-----0-----------------|


PM PM PM PM PM PM PM
|--3--|
E E E E E E E E E E E E E E E Q
--------------------------|----------------------------|
--------------------------|----------------------------|
--------------------------|-----------------------2----|
--------3-----2-----0-----|--------------2--3--2--2----|
--------------------------|--3-----1--------------0----|
--0--0-----0-----0-----0--|-----0-----0----------------|


PM PM PM PM PM PM PM PH
E E E E E E E E E E E E H
--------------------------|----------------------------||-----------||
--------------------------|----------------------------||-----------||
--------------------------|--------------3~--------*-||-----------||
--------3-----2-----0-----|--------------------------*-||-----------||
--------------------------|--3-----1-------------------||-----------||
--0--0-----0-----0-----0--|-----0-----0----------------||-----------||

thats the major mistake i saw but that part is much easierly played with the a string not the d

I want to post or [tab]
guest
You may want to rate the tab now too:
select rating
Please do not post tabs as comments. Select "correction" instead!