Oops, an error
Loading. Please wait.

Blessthejews - My Jew Inside Tab

68 views 1 this week
no commentswrite comment
1 2 3 4 5
2 more votes to show rating
add to favorites
launch autoscroll
font size
0
reset
how to read this tab
guitar tuner
Autoscroll
slow
fast
+/-
esc
set tempo
stop
Help us to improve Ultimate-Guitar.com Take our survey!
×
Author
Difficulty
Tuning
novice
B E A D F# B
MY JEW INSIDE BY BLESSTHEJEW

[legend]
* - mute
: - let ring
~ - vibrato
/or\ - slide
h - hammer on
p - pullof
# - epic slide, and whammy with double penetration extention 


[intro]
|---------------------------------------------|
|---------------------------------------------|
|---------------------------------------------|
|---------------------------------------------|
|---------------------------------------------|
|---1-------1----1-------6h7p5--###-----------|
|--00--0-0-00--000---0/4--------###-----------|
   *   * * *   **    *     *
[verse]
|----------------------------------------------|
|----------------------------------------------|
|----------------------------------------------|
|----------------------------------------------|
|----------------------------------------------|
|----0-2-0-3-4-0-2-0-3-4-0-2-0-3-4~~~~h5-0-3-4-|
|----------------------------------6^----------|
       *         *     *   *               * *

[breakdown]
|------------------------------------------|
|------------------------------------------|
|------------------------------------------|
|-----------11-------------------------13--|
|------------------------------------------|
|--------------------00----------000~::----|
|--00000--00--00000--00--0000000-000-00----|
   *****   *   ****   *   *  ***  *  **

[solo 1] 11 not 1's
|----------------------------------------------------------|
|---77777-99999-1111111111-991111-15151313-15-18-21-21-21^-|
|----------------------------------------------------------|
|----------------------------------------------------------|
|----------------------------------------------------------|
|----------------------------------------------------------|
|----------------------------------------------------------|

[solo 2]
|-----------------------------------------------------|
|-----------------------------------------------------|
|-----------------------------------------------------|
|-----------------------------------------------------|
|---------------------10-11-15h17~--------------------|
|------------10-11-13--------------13p10h12-----------|
|---10-11-13--------------------------------15-15~----|

[solo 3]
|---------------------------------------------|
|---------------------------------------------|
|--12-12-13-----------------------------------|
|-----------12-15-----------------------------|
|-----------------15-15-----------------------|
|-----------------------18-18-18#-------------|
|---------------------------------------------|

[solo 4]
|--------------------------------------------|
|--3/17----------------------5-5::-----------|
|-------18\5---------------5-----------------|
|------------5-----------7-------------------|
|--------------5-------9---------------------|
|----------------5---7-----------------------|
|------------------6-------------------------|

[end solo]
|------------------------------------------|
|----7777-8888-7777------777777777/24p22---|
|-------------------6656-------------------|
|------------------------------------------|
|------------------------------------------|
|------------------------------------------|
|------------------------------------------|






LYRICS

*verse*
the jew inside is screaming
BREEBREBBEEE

*breakdown*

*verse*
i killed someone today, the jew inside is dead
dead on the carpent floor
blood everywhere, knives down the throat
legs spread wide, jews shall be fucked

*guitar solo 1*

*no instrument part*
BREEEE , AHAHAHAH , BREEBRE

*breakdown*

*guitar solo 2*

*breakdown*

*guitar solo 3*

*verse*
jews, all, dead
dead, jews, everywhere
my, floor, wet
wet from the sacrificial ore

*guitar solo 4*

BREEE
*breakdown*

*verse*
i killed someone today
my jew inside is dead
dead on the floor
*violin breakdown* /with flutes
dead on the floor
my jew inside
is everywhere
every night
every day
my jew inside
is dead
dead
de--
dea---
DEAD!!
on the floor

*breakdown*

*guitar 1&2 end solo*

*violin outro*

*drum outro*
Suggest correction
Give kudos to tab author, rate the tab!
1 2 3 4 5
comments
print report bad tab
guest
You may want to rate the tab now too:
select rating
Wanna post a correction for this tab? Suggest correction