Oops, an error
Loading. Please wait.

Blind-Limits - The Panthers On Fire Bass Tab

53 views 1 this week
no commentswrite comment
1 2 3 4 5
please rate
add to favorites
launch autoscroll
font size
0
reset
guitar tuner
Autoscroll
slow
fast
+/-
esc
set tempo
stop
Help us to improve Ultimate-Guitar.com Take our survey!
×
Contributor
Difficulty
novice
We were just fooling around and we made this song but i thought i would tab it anyways. 
very simple.

-------------------|
-------------------|
-------2h3-----4h5-|       x4
---2h3-----4h5-----|

---------------------------------------------------------------------|
---------------------------------------------------------------------|
-------------------2~3-3-3-3-3-3-3-----------------4~5-5-5-5-5-5-5---|  x3
---2~3-3-3-3-3-3-3-----------------4~5-5-5-5-5-5-5-------------------|
verse
-----------------------------|
-----------------------------|
-------2h3-3-------4h5-5-----|    x5
-2h3-3-------4h5-5-----------|

Bass solo

-----------2h3p2-- play   ---4-2-4-------------------------|
---2h3p2--------h4 fast   --------2-3----------------------|
--------h4--------        -----------2-4-------2-3^^^^~~~~-|
------------------        --------------3-2-2-3------------|


Then you just have to play the verse 2 then the intro 6 times and your done the song. we 
be posting the song on you tube soon so that you can follow along.enjoy!
comments
We did not receive enough feedback on this tab! Please rate:
print report bad tab
1 2 3 4 5
I want to post or [tab]
guest
You may want to rate the tab now too:
select rating
Please do not post tabs as comments. Select "correction" instead!