Oops, an error
Loading. Please wait.

Blisslikethis - 9Th And Columbia Tab

69 views 1 this week
no commentswrite comment
1 2 3 4 5
please rate
add to favorites
launch autoscroll
font size
0
reset
how to read this tab
guitar tuner
Autoscroll
slow
fast
+/-
esc
set tempo
stop
Help us to improve Ultimate-Guitar.com Take our survey!
×
Author
Difficulty
Tuning
novice
D A D G B E
Tuning: Drop D

One of our slower songs with a loving meaning... Its name was Alaska. 

* = Palm Mute
^ = Natural Harmonic

Intro(Clean):

e|--------------------------------------------------|
B|--------------------------------------------------|
G|--------------------------------------------------|
D|---0--0---0---0--0---0---0--0---0---0--0---0------|
A|--4--4-------5--5-------7--7-------9--9-----------|
D|-0--0---0---5--5---5---7--7---7---9--9---9--------|

e|--------------------------------------------------|
B|--------------------------------------------------|
G|--------------------------------------------------|
D|---0--0---0---0--0---0---0--0---0---0--0----0--0--|
A|--4--4-------5--5-------7--7-------9--9----9--9---|
D|-0--0---0---5--5---5---7--7---7---9--9----9--9----|


Verse:
   "So here we are tonight, Everything's feeling right
    and I wonder If you feel how I feel" 
e|--------------------------------------------------|
B|--------------------------------------------------|
G|--------------------------------------------------|
D|---0--0---0---0--0---0---0--0---0---0--0---0------|
A|--4--4-------5--5-------7--7-------9--9-----------|
D|-0--0---0---5--5---5---7--7---7---9--9---9--------|

   "And with your hand in mine, I wish we had more time
    Is this a dream or is it all real..."
e|--------------------------------------------------|
B|--------------------------------------------------|
G|--------------------------------------------------|
D|---0--0---0---0--0---0---0--0---0---0--0----0--0--|
A|--4--4-------5--5-------7--7-------9--9----9--9---|
D|-0--0---0---5--5---5---7--7---7---9--9----9--9----|

Distortion guitar comes in here with:

  "You're laying to my right, no being alone tonight
   and I hope you know that you are my life"
e|--------------------------------------------------|
B|--------------------------------------------------|
G|--------------------------------------------------|
D|-00000000-55555555-77777777-99999999--------------|
A|-00000000-55555555-77777777-99999999--------------|
D|-00000000-55555555-77777777-99999999--------------|
   ******** ******** ******** ********

Rhythm clean:
e|--------------------------------------------------|
B|--------------------------------------------------|
G|--------------------------------------------------|
D|---0--0---0---0--0---0---0--0---0---0--0---0------|
A|--4--4-------5--5-------7--7-------9--9-----------|
D|-0--0---0---5--5---5---7--7---7---9--9---9--------|

  "You look me in the eyes, I see all truth no lies
   you are the one for me and this feels so, right.."
e|--------------------------------------------------|
B|--------------------------------------------------|
G|--------------------------------------------------|
D|-00000000-55555555-77777777-----------------------|
A|-00000000-55555555-77777777--9^-------------------|
D|-00000000-55555555-77777777-----------------------|
   ******** ******** ******** 

Rhythm clean:
e|--------------------------------------------------|
B|--------------------------------------------------|
G|--------------------------------------------------|
D|---0--0---0---0--0---0---0--0---0---0--0----0--0--|
A|--4--4-------5--5-------7--7-------9--9----9--9---|
D|-0--0---0---5--5---5---7--7---7---9--9----9--9----|

e|--------------------|
B|--------------------|
G|--------------------|
D|---0--0----0--0-----|
A|--7--7----7--7------|
D|-7--7----7--7-------|


Chorus Distortion:

Rhythm:

e|--------------------------------------------------|
B|--------------------------------------------------|
G|--------------------------------------------------| x2 (the L stands for 11
D|-5555-555222-222999-99-LLLTTLLL-------------------|    and T stands for 12)
A|-5555-555222-222999-99-99999999-------------------|
D|-5555-555222-222999-99-99999999-------------------|

Lead:

e|-12p10p9h10-x2-14p10p9h10-x2-15p10p9h10-x2-14p10p9h10-x2--|
B|----------------------------------------------------------|
G|----------------------------------------------------------| x2
D|----------------------------------------------------------|
A|----------------------------------------------------------|
D|----------------------------------------------------------|

Rhythm:

e|----------------------------------------------------|
B|----------------------------------------------------|
G|----------7-----------9-----------11----------11/9--| x2 
D|-55555555-x--22222222-x--99999999-x--99999999--x/x--|    
A|-55555555-5--22222222-7--99999999-9--99999999--9/7--|
D|-55555555----22222222----99999999----99999999-------|

Lead:

e|-12t9t10t9-x8-14t9t10t9-x8-15t9t10t9-x8-14t9t10t9-x8--|
B|------------------------------------------------------|
G|------------------------------------------------------|
D|------------------------------------------------------|
A|------------------------------------------------------|
D|------------------------------------------------------|

e|-12t9t10t9-x8-14t9t10t9-x8-15t9t10t9-x8-17t9t12t9-x8--|
B|------------------------------------------------------|
G|------------------------------------------------------|
D|------------------------------------------------------|
A|------------------------------------------------------|
D|------------------------------------------------------|

quick transition back into the verse. same as the first

verse

chorus

Solo:

Rhythm

e|------------------------------------------------------|
B|------------------------------------------------------|
G|------------------------------------------------------|x2
D|-55555555-77777777-9999999999999999-------------------|
A|-55555555-77777777-9999999999999999-------------------|
D|-55555555-77777777-9999999999999999-------------------|


e|------------------------------------------------------|
B|------------------------------------------------------|
G|------------------------------------------------------|
D|-22222222-55555555-9999999999999999-------------------|
A|-22222222-55555555-9999999999999999-------------------|
D|-22222222-55555555-9999999999999999-------------------|


e|------------------------------------------------------|
B|------------------------------------------------------|
G|------------------------------------------------------|
D|-55555555-77777777-9999999999999999-------------------|
A|-55555555-77777777-9999999999999999-------------------|
D|-55555555-77777777-9999999999999999-------------------|

ill tab the solo later.
Suggest correction
What's this?
You can suggest a correction to this tab. Community and Mods will review your correction and vote to approve or reject it.
comments
We did not receive enough feedback on this tab! Please rate:
print report bad tab
1 2 3 4 5
guest
You may want to rate the tab now too:
select rating
Please do not post tabs as comments. Select "correction" instead!