Oops, an error
Loading. Please wait.

Blisslikethis - Chapter One Intro To Bliss Tab

24 views 1 this week
no commentswrite comment
1 2 3 4 5
please rate
add to favorites
launch autoscroll
font size
0
reset
how to read this tab
guitar tuner
Tab Pro tools
  • play this tab
  • loop segment
  • change instrument
  • show fretboard
  • metronome
Autoscroll
slow
fast
+/-
esc
set tempo
stop
Contributor
Difficulty
Tuning
novice
D A D G B E
Tuning: Drop D


alright the drum fill plays 8 times. the first two times are on their own.
the third time through the rhythm guitar plays:

|----|
|----|
|----|
|-0~-|
|-0~-|
|-0~-|

and the fourth time through the lead plays:

|----|
|----|
|----|
|-0~-|
|-0~-|
|-0~-|

5th and 6th time the rhythm strums:

|----|
|----|
|----|
|-8~-|
|-8~-|
|-8~-|

while the Lead plays:

|-----------------------------------------------------------------------------|
|-----------------------------------------------------------------------------|
|-----------------------------------------------------------------------------|
|-----------------------------------------------------------------------------|
|-7p0-7p0-7p0-7p0-8p0-8p0-8p0-8p0-10p0-10p0-10p0-10//12-12-12-12-12-12-12-12--|
|-----------------------------------------------------------------------------|

and during the 7th and 8th times through the fill:

Rhythm:
  tremolo picking
|-----------------------------------------------------------------------------|
|-----------------------------------------------------------------------------|
|-9----10----12----14---------------------------------------------------------|
|-----------------------------------------------------------------------------|
|-----------------------------------------------------------------------------|
|-----------------------------------------------------------------------------|

Lead:

|-----------------------------------------------------------------------------|
|-----------------------------------------------------------------------------|
|-----------------------------------------------------------------------------|
|-----------------------------------------------------------------------------|
|-7p0-7p0-7p0-7p0-8p0-8p0-8p0-8p0-10p0-10p0-10p0-10//12-12-12-12-12-12-12-12--|
|-----------------------------------------------------------------------------|

Then theres a drum fill again into the actual intro. Rhythm simply doesnt tap.

|--------------------------------------------------------------------|
|--------------------------------------------------------------------|
|--------------------------------------------------------------------|
|-00000000-0-0-0-----------------------------------------------------|
|-00000000-0-0-0-7h8-7h8-7h8-7h8-7h8-7h8-8*--------------------------|
|-00000000-0-0-0-----------------------------------------------------|
  ******** * * *                          *pinch

|--------------------------------------------------------------------|
|--------------------------------------------------------------------|
|--------------------------------------------------------------------|
|-00000000-0-0-0-----------------------------------------------------|
|-00000000-0-0-0-8h10-8h10-8h10-8h10-8h10-8h10-10*-------------------|
|-00000000-0-0-0-----------------------------------------------------|
  ******** * * *        

|--------------------------------------------------------------------|
|--------------------------------------------------------------------|
|--------------------------------------------------------------------|
|-88888888-8-8-8-----------------------------------------------------|
|-88888888-8-8-8-10h12-10h12-10h12-10h12-10h12-10h12-12*-------------|
|-88888888-8-8-8-----------------------------------------------------|
  ********     

|--------------------------------------------------------------------|
|--------------------------------------------------------------------|
|--------------------------------------------------------------------|
|-88888888-8-8-8----88888-8/10---------------------------------------|
|-88888888-8-8-8----88888-8/10---------------------------------------|
|-88888888-8-8-8----88888-8/10---------------------------------------|
  ********          ***** 

When the screaming starts:

"It's not just gonna be a thought anymore."  "Were gonna"
|--------------------------------------------------------------------|
|--------------------7/8--------7/8----------------------------------|
|-------------------10/11------10/11---------------------------------|
|-00000000-0-0-0--0--------0-0---------------------------------------|
|-00000000-0-0-0--0--------0-0---------------------------------------|
|-00000000-0-0-0--0--------0-0---------------------------------------|
  ******** * * *  *        * *              

"Run this shit like never before"
|--------------------------------------------------------------------|
|--------------------7/8--------7/8----------------------------------|
|-------------------10/11------10/11---------------------------------|
|-00000000-0-0-0--0--------0-0---------------------------------------|
|-00000000-0-0-0--0--------0-0---------------------------------------|
|-00000000-0-0-0--0--------0-0---------------------------------------|
  ******** * * *  *        * *              

"It's not just gonna be a thought anymore."  "Were gonna"
|--------------------------------------------------------------------|
|--------------------------------------------------------------------|
|--------------------------------------------------------------------|
|-88888888-8-8-8-----------------------------------------------------|
|-88888888-8-8-8-----------------------------------------------------|
|-88888888-8-8-8-----------------------------------------------------|
  ********     

"Run this shit like never, before"
|--------------------------------------------------------------------|
|--------------------------------------------------------------------|
|--------------------------------------------------------------------|
|-88888888-8-8-8----88888-8/10------------0-0-0----------------------|
|-88888888-8-8-8----88888-8/10------------0-0-0----------------------|
|-88888888-8-8-8----88888-8/10------------0-0-0----------------------|
  ********          *****                 * * *


Thats pretty much it.
comments
We did not receive enough feedback on this tab! Please rate:
print report bad tab
1 2 3 4 5
I want to post or [tab]
guest
You may want to rate the tab now too:
select rating
Please do not post tabs as comments. Select "correction" instead!