Oops, an error
Loading. Please wait.

Blisslikethis - This Bottle Of Malibu Is Almost As Cold As Your Heart Tab

83 views 1 this week
no commentswrite comment
1 2 3 4 5
please rate
add to favorites
launch autoscroll
font size
0
reset
how to read this tab
guitar tuner
Autoscroll
slow
fast
+/-
esc
set tempo
stop
Help us to improve Ultimate-Guitar.com Take our survey!
×
Author
Difficulty
Tuning
novice
D A D G B E
Tuning: Drop D


Alright. I'm Mainly tabbing this out so our new guitarist can learn our stuff
 in a little over a week for our next show. I'm tabbing this out for everyone
 because I know how it really goes. 
I wrote pretty much the whole song. Lyric basis credit goes to Dustin Lantz.
So do the verse parts (lead and rhythm) and the Rhythm chorus part.


Lead Intro:

e|---------------------------------------------------|
b|---------------------------------------------------|
g|---------------------------------------------------|
d|-99----99----99----99-99----99-99----99----99------|
a|-55----55----55----55-55----55-55----55----55------|
D|-55----55----55----55-55----55-55----55----55------|

e|-----------------------------------------------------|
b|-----------------------------------------------------| hopefully those 12s make sense.
g|-----------------------------------------------------| same beat as the line above.
d|-1212--1212--1212--12121212--12121212--1212--1212----| 
a|-99----99----99----99--99----99--99----99----99------| 
D|-99----99----99----99--99----99--99----99----99------|

after one time through, the rhythm part comes in with the bass kick.

Rhythm Intro:

e|---------------------------------------------------|
b|---------------------------------------------------|
g|---------------------------------------------------| This
d|-44----44----44----44-44----44-44----44----44------|
a|-55----55----55----55-55----55-55----55----55------|
D|-55----55----55----55-55----55-55----55----55------|  is

e|---------------------------------------------------|
b|---------------------------------------------------|  played
g|---------------------------------------------------|
d|-77----77----77----77-77----77-77----77----77------| 
a|-99----99----99----99-99----99-99----99----99------|  once
D|-99----99----99----99-99----99-99----99----99------|

Lead keeps playing the same thing two more times but the rhythm switches to
this (the whole thing with the lead part and drums played twice):

e|---------------------------------------------------|
b|---------------------------------------------------|
g|---------------------------------------------------| the "|" equals a slight pause.
d|-4------7---|--7-----------------------------------| 
a|-5x16---9x8-|--9x8---------------------------------|
D|-5------9---|--9-----------------------------------|




Straight into the verse. I only know the rhythm part.. =/ sorryyy

Verse:
e|---------------------------------------------------|
b|---------------------------------------------------|
g|---------------------------------------------------| x4
d|-4------7------------------------------------------| 
a|-5x16---9x16---------------------------------------|
D|-5------9------------------------------------------|
   PM     PM

the fourth time through let the last note ring for the transition into the chorus


Chorus:
(for the rhythm parts::: T = 12 on the fret board. F = 14 on the fret board.
it would have thrown off
the line up and strum pattern if I left the numbers there ha-ha)

Lead:
e|-------------------------------------------------------------------------------------|
b|-------------------------------------------------------------------------------------|
g|-------------------------------------------------------------------------------------| 
d|-9~-9-9-9-9-9-9-9-12-12-12-12-11-11-11-7~-7-7-7-7-7-7-7-14-14-14-14-12-12-12-11~-----| 
a|-------------------------------------------------------------------------------------|
D|-------------------------------------------------------------------------------------|

Rhythm:
e|-------------------------------------|
b|-------------------------------------|
g|-------------------------------------| 
d|-5555555555555555-7777777777777777---| 
a|-5555555577779999-777777779999TTTT---|
D|-5555555555555555-7777777777777777---|

Lead:
e|-------------------------------------------------------------------------------------|
b|-------------------------------------------------------------------------------------|
g|-------------------------------------------------------------------------------------|
d|-11-11-11-11-11-11-11-12-12-12-12-14-14-14-9~-9-9-9-9-9-9-9-14--12--14-12------------| 
a|-------------------------------------------------------------------------------------|
D|-------------------------------------------------------------------------------------|

Rhythm:
e|-------------------------------------|
b|-------------------------------------|
g|-------------------------------------| 
d|-9999999999999999-7777777777777777---| 
a|-99999999TTTTFFFF-7777777799997777---|
D|-9999999999999999-7777777777777777---|

Lead:
e|-------------------------------------------------------------------------------------|
b|-----------------------------------------------------------------------------11-12~--|
g|-----------------------------------------------------------------11tr12tr14tr--------| 
d|-9~-9-9-9-9-9-9-9-12-121212121212-11-12-14~-14-14-14-14-14-14-14---------------------| 
a|-------------------------------------------------------------------------------------|
D|-------------------------------------------------------------------------------------|

Rhythm:
e|-------------------------------------|
b|-------------------------------------|
g|-------------------------------------| 
d|-5555555555555555-7777777777777777---| 
a|-5555555577779999-777777779999TTTT---|
D|-5555555555555555-7777777777777777---|

Lead:
e|---------------------------------10-10-10/17~-17-17-17-17-17-17-17--17--14-15-14-10~~|
b|-12-12-12-12-12-12-12-14-14-14-14----------------------------------------------------|
g|-------------------------------------------------------------------------------------|
d|-------------------------------------------------------------------------------------| 
a|-------------------------------------------------------------------------------------|
D|-------------------------------------------------------------------------------------|

Rhythm:
e|-------------------------------------|
b|-------------------------------------|
g|-------------------------------------| 
d|-9999999999999999-7777777777777777---| 
a|-99999999TTTTFFFF-7777777799997777---|
D|-9999999999999999-7777777777777777---|

End on:
e|-----|
b|-----|
g|-----| 
d|-5~~-| 
a|-5~~-|
D|-5~~-|

As lead and rhythm ring... The high-hat counts the verse back in.

Verse
Chorus

Drum fill as the end notes in the chorus ring..

Breakdown:

"I've Grown so much stronger thanks to you"
e|---------------------------------------------------|
b|---------------------------------------------------|
g|---------------------------------------------------| 
d|-00-00-0000-00-0000-00-000-------------------------| 
a|-00-00-0000-00-0000-00-000-------------------------|
D|-00-00-0000-00-0000-00-000-------------------------|
   ** ** **** ** **** ** ***
"I can finally walk on my own"
e|---------------------------------------------------|
b|---------------------------------------------------|
g|---------------------------------------------------| 
d|-00-00-0000-00-0000-00-000-------------------------| 
a|-00-00-0000-00-0000-00-000-------------------------|
D|-00-00-0000-00-0000-00-000-------------------------|
   ** ** **** ** **** ** ***
"I've Grown so much stronger thanks to you"
e|---------------------------------------------------|
b|---------------------------------------------------|
g|---------------------------------------------------| 
d|---------------------------------------------------| 
a|---------------------------------------------------|
D|-00-00-0000-00-0000-00-000-------------------------|

"I can finally walk on my own"
e|---------------------------------------------------|
b|---------------------------------------------------|
g|---------------------------------------------------| 
d|---------------------------------------------------| 
a|---------------------------------------------------|
D|-00-00-0000-00-0000-00-000-------------------------|


sped up dissonant part without drums:

e|---------------------------------------------------|
b|---------------------------------------------------|
g|---------------------------------------------------| 
d|---------------------------------------------------| 
a|-000-000-0000000-000-0000000-000-00000-------------|
D|-111-111-1111111-111-1111111-111-11111-------------|
   *** *** ******* *** ******* *** *****

sped up breakdown/Outro:

"I've tried so hard to save you from what you've become"
e|---------------------------------------------------|
b|---------------------------------------------------|
g|---------------------------------------------------| 
d|---------------------------------------------------| 
a|-000-000-0000000-000-0000000-000-00000-------------|
D|-111-111-1111111-111-1111111-111-11111-------------|
   *** *** ******* *** ******* *** *****

"I talked you of it but I should have let you drownnnnn"
e|---------------------------|
b|---------------------------|
g|---------------------------| 
d|-0--0-0-0--0-0///0--0--0---| 
a|-0--0-0-0--0-0///0--0--0---|
D|-1--1-1-1--1-1///13-13-13--|
   *  * * *  * *   *  *  *

Well, besides me not knowing the lead tapping thingy for the verse....
This is Malibu in a nut shell!
Suggest correction
Give kudos to tab author, rate the tab!
1 2 3 4 5
comments
print report bad tab
guest
You may want to rate the tab now too:
select rating
Wanna post a correction for this tab? Suggest correction