Oops, an error
Loading. Please wait.

Blood On The Dance Floor - Libertine Tab

2,229 views 1 this week
2 commentsread comments
1 2 3 4 5
please rate
add to favorites
launch autoscroll
font size
0
reset
how to read this tab
guitar tuner
Autoscroll
slow
fast
+/-
esc
set tempo
stop
Help us to improve Ultimate-Guitar.com Take our survey!
×
Author
Difficulty
novice
Libertine

To Rebeca... or however u spell ur name...

Chords Used: Fer Intro and Most of The Song...
I Think These Are The Proper Terms for them...
  Am  C   Em
e-0-|-0-|-0-|
B-1-|-1-|-0-|
G-2-|-0-|-1-|
D-2-|-2-|-2-|
A-0-|-3-|-2-|
E---|---|-0-|
In that order I belive but I Tink Dahvie
Plays the low E String Open on ever chord idk
Mainly Down Stroks or w.e.

When He says But waaaaaaait I fall apart 
I tink He uses these chords:
  A   Am
e-0-|-0-|
B-2-|-1-|
G-2-|-2-|
D-2-|-2-|
A-0-|-0-|
E---|---|

When He Says Watch Me Bleeeed etc etc
I think Dahvie just Plays the Am and C Chords Palm Muted
  Am  C   
e-0-|-0-|
B-1-|-1-|
G-2-|-0-|
D-2-|-2-|
A-0-|-3-|
E---|---|

Then After He Says Were Freeeeee 
e------------------------------|
B-9-9-9-9-10-10101010p7-77-7h9-|10's not 1 0
G------------------------------|
D------------------------------|
A------------------------------|
E------------------------------|
I think theres another string being hit so it may be:
e------------------------------|
B-9-9-9-9-10-10101010p7-77-7h9-|10's not 1 0
G-x-x-x-x--x--x-x-x-x---xx-x---|
D-0-0-0-0--0--0-0-0-0---00-0---|
A------------------------------|
E------------------------------|
u dont hafta play like that if u cant but it can also be played like:
e--------------------------------------|
B--------------------------------------|
G-13-13-13-13-14-14141414p11-1111-11h13|13's 14's amd 11's
D--------------------------------------|
A--------------------------------------|
E--------------------------------------|
Or have 2 guitars one fer the high one and one fer the low one
thur both the same notes... i tink...
wellz like i said in the other one 
i did this by ear so itf its npt right
dont call me a dumb ass :/
Suggest correction new What's this?
You can suggest a correction to this tab. Community and Mods will review your correction and vote to approve or reject it.
comments
We did not receive enough feedback on this tab! Please rate:
print report bad tab
1 2 3 4 5
2 comments total.
0 reply
r6o6n666 50 wrote on February 5 2011, 09:16 pm

this sounds dead on with the song

0 reply
Super Herpes 16 wrote on February 25 2011, 03:04 pm

thanks. i guessed it and it turned out sounding like it

guest
You may want to rate the tab now too:
select rating
Please do not post tabs as comments. Select "correction" instead!