Oops, an error
Loading. Please wait.

Blue Morgan - Clint Eastwood Tab

3,937 views 6 this week
no commentswrite comment
1 2 3 4 5
x 4
add to favorites
launch autoscroll
font size
0
reset
how to read this tab
guitar tuner
Autoscroll
slow
fast
+/-
esc
set tempo
stop
Help us to improve Ultimate-Guitar.com Take our survey!
×
Author
e|----------------------0--------------------------------0-------------------------|
b|--5--6--8--6--5---3-----------5--8--10--12--10--8--6-----------------------------|
g|--------------------0---0----------------------------0---0-----------------------|
D|--5--7--9--7--5-5-3-----------5--9--10--12--10--9--7-----------------------------|
A|---------------------------------------------------------------------------------|
E|---------------------------------------------------------------------------------|


e|----------------------------------------0------------------------------0-----------|
b|--5--6--8--6--5--------3---5--3/53-1-------1---5---6---8---6---5------3-------3----|
g|---------------------0----------------0---0-------0---0---0---0--0---0-------------|
D|--5--7--9--7--5--5-3-------5--3/53-2-----------5---7---9---7---5----3-----3--------|
A|-----------------------------------------------------------------------------------|
E|-----------------------------------------------------------------------------------|


e|-------------------------------------0---------------0---------------------------|
b|--5--8--10--12--13--12--10--8--6---6-------5-6-5-3-------3-----------------------|
g|---------------------------------0-----0-----------0---0-------------------------|
D|--5--9--10--12--14--12--10--9--7-----------5-----3-------------------------------|
A|---------------------------------------------------------------------------------|
E|---------------------------------------------------------------------------------|


e|---------------0--------12--8--10--7--8--5---3--1---1-0---1-0-----1-0-----1-0-----1-0--|
b|--5----3---1-------1-------------------------------------------------------------------|
g|---------0---0---0------12--9--10--7--9--5---4--2-0-----0-----2-0-----2-0-----2-0------|
D|-------3---2---------------------------------------------------------------------------|
A|---------------------------------------------------------------------------------------|
E|---------------------------------------------------------------------------------------|


e|--------------------------------0-----0-------0----------------------------------|
b|--12--8--10--6--8--5--3---5---5-----5-------5------------------------------------|
g|----------------------------0-------------0--------------------------------------|
D|--12--9--10--7--9--5--3---5-------5-----5-------5--------------------------------|
A|---------------------------------------------------------------------------------|
E|---------------------------------------------------------------------------------|


e|---12--8--10--7--8--5---------------0------0----------------------------------0---|
b|------------------------6-8-10---10-------------12--8--10--6--8--5--3/53---3------|
g|---12--9--10--7--9--5----------0------0-------------------------------0---0-------|
D|------------------------7-9-10----------10------12--9--10--7--9--5--3/53----------|
A|----------------------------------------------------------------------------------|
E|----------------------------------------------------------------------------------|


e|--------0-----------------------------0-------------------------------------0-----0-|
b|--1---1----------5--6--8--6--5--3---3-----3------5--8--10--12--10--8--6---6---------|
g|----0-----0-----------------------0-----0---0---------------------------0-------0---|
D|--2------------5-5--7--9--7--5--3----------------5--9--10--12--10--9--7-------7-----|
A|------------------------------------------------------------------------------------|
E|------------------------------------------------------------------------------------|


e|-----------------------------------------0-----0---------------------------------|
b|----5---6---8---6---5---3-----5----3---3---1-------1-----------------------------|
g|------0---0---0---0---0---0----------0-------0---0-------------------------------|
D|--5-5---7---9---7---5---3----------3-------2-------------------------------------|
A|---------------------------------------------------------------------------------|
E|---------------------------------------------------------------------------------|
Suggest correction
comments
print report bad tab
guest
You may want to rate the tab now too:
select rating
Wanna post a correction for this tab? Suggest correction