Oops, an error
Loading. Please wait.

Bound To Fail - Looking Down tab

59 views 3 this week
no commentswrite comment
1 2 3 4 5
3 more votes to show rating
add to favorites
×
Save as Personal and add changes to this tab that will be seen only by you. Learn more ›
×
You can save this tab as Personal to edit and correct it or add notes. All changes will be seen only by you. Learn more »
launch autoscroll
font size
0
reset
how to read this tab
guitar tuner
edit
Autoscroll
slow
fast
+/-
esc
set tempo
stop
-------------------------------------------------------------------------------
                             Looking Down - Bound To Fail
-------------------------------------------------------------------------------
Tabbed by: Databoy
Email: Databoy88@gmail.com

Tuning:Drop D - DADGBE


Intro/Verse:

Guitar 1

e|-------------------------------------------------------------------|
B|-------------------------------------------------------------------|
G|-----2-------------------------------------------------------------|
D|---------3-------3------------------3-----------2-------5----------|
A|---------------------5------------------5-----------3-------3------|
D|--0----------0------------0---3\5-----------0----------------------|


Guitar 2

e|-------------------------------------------------------------------|
B|-------------------------------------------------------------------|
G|-------------------------------------------------------------------|
D|-------------------------------------------------------------------|
A|-------------------------------------------------------------------|
D|-----00----00------000-000-----------00----00------0000-0000-------|


PreChorus:

Guitar 1

e|-----------------------------------------|
B|---------------10-10-10-10-----8-8-8-8---|
G|----77777777-----------------------------|
D|---------------7--7--7--7------5-5-5-5---|   x1
A|----55555555-----------------------------|
D|-----------------------------------------|

Guitar 2

e|-----------------------------------------|
B|-----------------------------------------|
G|----33333333------10-10-10-10----9-9-9-9-|
D|-----------------------------------------|   x1
A|----11111111------8--8--8--8-----7-7-7-7-|
D|-----------------------------------------|


Verse:

Guitar 1

e|-------------------------------------------------------------------|
B|-------------------------------------------------------------------|
G|-----2-------------------------------------------------------------|
D|---------3-------3------------------3-----------2-------5----------|   x4
A|---------------------5------------------5-----------3-------3------|
D|--0----------0------------0---3\5-----------0----------------------|


Guitar 2

e|-------------------------------------------------------------------|
B|-------------------------------------------------------------------|
G|-------------------------------------------------------------------|
D|-------------------------------------------------------------------|   x4
A|-------------------------------------------------------------------|
D|-----00----00------000-000-----------00----00------0000-0000-------|


Chorus:

Guitar 1

e|-------------------------------------------------------------------------|
B|---------------10-10-10-10----8-8-8-8----66666666-----8-8-8-8----5-5-5-5-|
G|----77777777-------------------------------------------------------------|
D|----------------7-7-7-7-------5-5-5-5----33333333-----5-5-5-5----2-2-2-2-|
A|----55555555-------------------------------------------------------------|
D|-------------------------------------------------------------------------|

e|--------------------------------------------------------------------------|
B|---------------10-10-10-10-----8-8-8-8----66666666---8-8-8-8---10-10-10-10|
G|----77777777--------------------------------------------------------------|
D|---------------7--7--7--7------5-5-5-5----33333333---5-5-5-5---7--7--7--7-|
A|----55555555--------------------------------------------------------------|
D|--------------------------------------------------------------------------|

Guitar 2

e|--------------------------------------------------------------------------|
B|--------------------------------------------------------------------------|
G|----33333333----10-10-10-10---9-9-9-9---77777777---9-9-9-9----5-5-5-5-----|
D|--------------------------------------------------------------------------|
A|----11111111----8--8--8--8----7-7-7-7---55555555---7-7-7-7----3-3-3-3-----|
D|--------------------------------------------------------------------------|


e|--------------------------------------------------------------------------|
B|--------------------------------------------------------------------------|
G|----33333333----10-10-10-10---9-9-9-9---77777777------99999999------------|
D|--------------------------------------------------------------------------|
A|----11111111----8--8--8--8----7-7-7-7---55555555------77777777------------|
D|--------------------------------------------------------------------------|


Bridge:

Guitar 1

e|-----------------------------------------------------------------|
B|---------------1-------------------------------------------------|
G|---------------1--------6-------6--------------------------------|
D|---------------1-------------------------------7-5-4-4-5-7-------|
A|---0---8---0-------0----3---0---3---0---8---0--------------------|
D|---0---8---0-------0--------0-------0---8---0--------------------|
                                                                        x2
e|-----------------------------------------------------------------|
B|---------------1-------------------------------------------------|
G|---------------1--------6-------6---------------5--7--10-9-------|
D|---------------1-------------------------------------------------|
A|---0---8---0-------0----3---0---3---0---8---0---3--5--8--7-------|
D|---0---8---0-------0--------0-------0---8---0--------------------|


Guitar 2

e|------------------------------------------------------------------|
B|------------------------------------------------------------------|
G|------------------------------------------------------------------|
D|------------------------------------------------------------------|   x4
A|---0---8---0---10---0---10---0---10---0---8---0---0-0---000-000---|
D|---0---8---0---10---0---10---0---10---0---8---0---0-0---000-000---|

e|------------------------------------------------------------------|
B|------------------------------------------------------------------|
G|------------------------------------------------------------------|
D|------------------------------------------------------------------|   x2
A|--------0-0--------0-0--10--0--10-------0-0-------000---000-000---|
D|---8\2--0-0---8\2--0-0--10--0--10--8\2--0-0--8\2--000---000-000---|


(both guitars repeat intro and verse parts)

Verse:

Guitar 1

e|-------------------------------------------------------------------|
B|-------------------------------------------------------------------|
G|-----2-------------------------------------------------------------|
D|---------3-------3------------------3-----------2-------5----------|   x4
A|---------------------5------------------5-----------3-------3------|
D|--0----------0------------0---3\5-----------0----------------------|


Guitar 2

e|-------------------------------------------------------------------|
B|-------------------------------------------------------------------|
G|-------------------------------------------------------------------|
D|-------------------------------------------------------------------|   x4
A|-------------------------------------------------------------------|
D|-----00----00------000-000-----------00----00------0000-0000-------|


PreChorus:

Guitar 1

e|-----------------------------------------|
B|---------------10-10-10-10-----8-8-8-8---|
G|----77777777-----------------------------|
D|---------------7--7--7--7------5-5-5-5---|   x1
A|----55555555-----------------------------|
D|-----------------------------------------|

Guitar 2

e|-----------------------------------------|
B|-----------------------------------------|
G|----33333333------10-10-10-10----9-9-9-9-|
D|-----------------------------------------|   x1
A|----11111111------8--8--8--8-----7-7-7-7-|
D|-----------------------------------------|


Verse:

Guitar 1

e|-------------------------------------------------------------------|
B|-------------------------------------------------------------------|
G|-----2-------------------------------------------------------------|
D|---------3-------3------------------3-----------2-------5----------|   x4
A|---------------------5------------------5-----------3-------3------|
D|--0----------0------------0---3\5-----------0----------------------|


Guitar 2

e|-------------------------------------------------------------------|
B|-------------------------------------------------------------------|
G|-------------------------------------------------------------------|
D|-------------------------------------------------------------------|   x4
A|-------------------------------------------------------------------|
D|-----00----00------000-000-----------00----00------0000-0000-------|


Chorus:

Guitar 1

e|--------------------------------------------------------------------------|
B|---------------10-10-10-10-----8-8-8-8----66666666-----8-8-8-8----5-5-5-5-|
G|----77777777--------------------------------------------------------------|
D|----------------7-7-7-7--------5-5-5-5----33333333-----5-5-5-5----2-2-2-2-|
A|----55555555--------------------------------------------------------------|
D|--------------------------------------------------------------------------|

e|--------------------------------------------------------------------------|
B|---------------10-10-10-10-----8-8-8-8----66666666---8-8-8-8---10-10-10-10|
G|----77777777--------------------------------------------------------------|
D|---------------7--7--7--7------5-5-5-5----33333333---5-5-5-5---7--7--7--7-|
A|----55555555--------------------------------------------------------------|
D|--------------------------------------------------------------------------|

Guitar 2

e|--------------------------------------------------------------------------|
B|--------------------------------------------------------------------------|
G|----33333333----10-10-10-10---9-9-9-9---77777777---9-9-9-9----5-5-5-5-----|
D|--------------------------------------------------------------------------|
A|----11111111----8--8--8--8----7-7-7-7---55555555---7-7-7-7----3-3-3-3-----|
D|--------------------------------------------------------------------------|


e|--------------------------------------------------------------------------|
B|--------------------------------------------------------------------------|
G|----33333333----10-10-10-10---9-9-9-9---77777777------99999999------------|
D|--------------------------------------------------------------------------|
A|----11111111----8--8--8--8----7-7-7-7---55555555------77777777------------|
D|--------------------------------------------------------------------------|


Breakdown:

Guitar 1
   
e|--------------------------------------------------------------------------|
B|--------------------------------------------------------------------------|
G|7-7---------------9-9---------------10-10---------------12-12-------------|
D|--------------------------------------------------------------------------|
A|5-5---------------7-7---------------8--8----------------10-10-------------|
D|----00000-00000--------00000-00000---------00000-00000---------00000-00000|

Guitar 1 lead

e|---------------------------------------------------|
B|---------------------------------------------------|
G|---------7----------9----------10----------12------|
D|------6----------9----------10----------12---------|   x1
A|---5----------7-----------8---------10-------------|
D|---------------------------------------------------|

Guitar 2

e|----------------------------------------------------------------|
B|----------------------------------------------------------------|
G|----------------------------------------------------------------|
D|----------------------------------------------------------------|   x2
A|----------------------------------------------------------------|
D|---0-0--00000-00000-00000------0-0--00000-00000-00000-----------|

Guitar 2 plays this riff over the lead

e|--------------------------------------------------------|
B|--------------------------------------------------------|
G|--------------------------------------------------------|
D|--------------------------------------------------------|   x2
A|--------------------------------------------------------|
D|---0-0--00000-00--000-000-----0-0--00000-00--000-000----|


Outro

Guitar 1

e|-------------------------11----------11-------11------11---------|
B|-----------------12-------------12------12-------12--------------|
G|----------------------10-----10----------------------------------|
D|---------------0-------------------------------------------------|   x8  
A|---------------0-------------------------------------------------|
D|--000-000--00--0-------------------------------------------------|

Guitar 2

e|-----------------------------------------------|
B|-----------------------------------------------|
G|-----------------------------------------------|
D|---------------0-------------------0-----------|   x8
A|---------------0-------------------0-----------|
D|--000-000--00--0------000-000--00--0-----------|



************************************

| /   slide up
| \   slide down
| h   hammer-on
| p   pull-off
| ~   vibrato
| +   harmonic
| x   Mute note
| b   Bend
| pb  Pre-bend
| br  Bend release
| pbr Pre-bend release
| brb Bend release bend

************************************

            
            
Suggest correction
Creating personal tab
Creating personal tab
You can edit any tab online and save it as your Personal.

You can edit, replace or remove any tab part or add personal notes – all changes will be seen only by you.

Personal tabs can be accessed anytime from any device, even offline.
Learn more »
Give kudos to tab author, rate the tab!
1 2 3 4 5
comments
print report bad tab
guest
You may want to rate the tab now too:
select rating
Wanna post a correction for this tab? Suggest correction