Oops, an error
Loading. Please wait.

Burning The Masess - Cyanide tab

708 views 1 this week
1 commentread comment
1 2 3 4 5
3 more votes to show rating
add to favorites
×
Save as Personal and add changes to this tab that will be seen only by you. Learn more ›
×
You can save this tab as Personal to edit and correct it or add notes. All changes will be seen only by you. Learn more »
launch autoscroll
font size
0
reset
how to read this tab
guitar tuner
edit
Autoscroll
slow
fast
+/-
esc
set tempo
stop
First of all, there are no tabs for this song.
I did all of it by ear.
and that leads it to be about 75% incorrect.
But, i just wanted a start, and to know if anyone knows any corrections or more of the song.
I used this for the solo.

http://youtube.com/watch?v=ulSGZR73BqA

enjoy!



(DROP C!)



Gtr I (B F# B E G# C#) - 'Untitled'
Gtr II (B F# B E G# C#) - 'Untitled'

 Intro
  Q=130
 4/4
  Gtr I
   ~~~~~~~~~~~~~~~~
   W           +W              S  S S S  S  S S S  S  S S S E E  4x
|-----------|-------------||-------------------------------------||
|-----------|-------------||o-----------------------------------o||
|-----------|-------------||-------------------------------------||
|-----------|-------------||-------------------------------------||
|-----------|-------------||o-------------------------------4-7-o||
|-12--------|-(12)--------||--12-11-8-8-12-11-8-8-12-11-8-8-4-7--||
|
| Gtr II
|  ~~
|  W           +W              S  S S S  S  S S S  S  S S S E E  4x
|-----------|-------------||-------------------------------------||
|-----------|-------------||o-----------------------------------o||
|-----------|-------------||-------------------------------------||
|-----------|-------------||-------------------------------------||
|-----------|-------------||o-------------------------------4-7-o||
|--8--------|--(8)--------||---8--7-5-5--8--7-5-5--8--7-5-5-4-7--||


   Verse 1
    S S S S S S  S S S S S S S S  S S   S S S S S S  S S E  E E E  4x
||------------------------------------|----------------------------||
||o-----------------------------------|---------------------------o||
||------------------------------------|----------------------------||
||------------------------------------|----------------------------||
||o--------------7-4--------------7-4-|--------------7-4----------o||
||--4-4-4-4-4-4------4-4-4-4-4-4------|-4-4-4-4-4-4------4--7-5-4--||
|
|   S S S S S S  S S S S S S S S  S S   S S S S S S  S S E  E E E  4x
||------------------------------------|----------------------------||
||o-----------------------------------|---------------------------o||
||------------------------------------|----------------------------||
||------------------------------------|----------------------------||
||o-------------11-7-------------11-7-|-------------11-7----------o||
||--7-7-7-7-7-7------7-7-7-7-7-7------|-7-7-7-7-7-7------7-11-8-7--||


   Interlude
   4/4
                                  PM|
    Q  Q  E E E E    Q   Q   E  E E E
||----------------|--------------------||-|
||o---------------|-------------------o||-|
||----------------|--------------------||-|
||----------------|--------------------||-|
||o---------------|-------------------o||-|
||--5--4--5-4-2-1-|--8---7---8--7-5-4--||-|
|
|                    ~~~~~~       PM|
|   Q  Q  E E E E    Q   Q   E  E E E
||----------------|--------------------||-|
||o---------------|-------------------o||-|
||----------------|--------------------||-|
||----------------|--------------------||-|
||o---------------|-------------------o||-|
||--8--7--8-7-5-4-|-12--11--12-11-8-7--||-|


    TP TP TPTPTPTP   TP  TP  TP TPPM|
    Q  Q  E E E E    Q   Q   E  E E E
||----------------|---------------------||
||o---------------|--------------------o||
||----------------|---------------------||
||----------------|---------------------||
||o---------------|--------------------o||
||--5--4--5-4-2-1-|--8---7---8--7-5-4---||
|
|   TP TP TPTPTPTP   TP  TP  TP TPPM|
|   Q  Q  E E E E    Q   Q   E  E E E
||----------------|---------------------||
||o---------------|--------------------o||
||----------------|---------------------||
||----------------|---------------------||
||o---------------|--------------------o||
||--8--7--8-7-5-4-|-12--11--12-11-8-7---||


   Verse 2
    S S S S S S  S S S S S S S S  S S   S S S S S S  S S E  E E E  4x
||------------------------------------|----------------------------||
||o-----------------------------------|---------------------------o||
||------------------------------------|----------------------------||
||------------------------------------|----------------------------||
||o--------------7-4--------------7-4-|--------------7-4----------o||
||--4-4-4-4-4-4------4-4-4-4-4-4------|-4-4-4-4-4-4------4--7-5-4--||
|
|   S S S S S S  S S S S S S S S  S S   S S S S S S  S S E  E E E  4x
||------------------------------------|----------------------------||
||o-----------------------------------|---------------------------o||
||------------------------------------|----------------------------||
||------------------------------------|----------------------------||
||o-------------11-7-------------11-7-|-------------11-7----------o||
||--7-7-7-7-7-7------7-7-7-7-7-7------|-7-7-7-7-7-7------7-11-8-7--||


 Next Interlude
  Q  Q  Q  Q      S S  S  S  S  S  S  S S S  S  S  S  S  S  S
|-------------||----------------------------------------------|
|-------------||o---------------------------------------------|
|-------------||----------------------------------------------|
|-------------||----------------------------------------------|
|-------------||o-----------10-10--7--7-----------10-10--7--7-|
|-5--4--5--4--||--5-5--8--8-------------5-5--8--8-------------|
|
| Q  Q  Q  Q      S S  S  S  S  S  S  S S S  S  S  S  S  S  S
|-------------||----------------------------------------------|
|-------------||o---------------------------------------------|
|-------------||----------------------------------------------|
|-------------||----------------------------------------------|
|-------------||o-----------13-13-10-10-----------13-13-10-10-|
|-8--7--8--7--||--8-8-12-12-------------8-8-12-12-------------|


  S S  S  S  S  S  S  S S S S S S S S S
|------------------------------------------||
|-----------------------------------------o||
|------------------------------------------||
|------------------------------------------||
|-----------10-10--7--7-------------------o||
|-5-5--8--8-------------5-5-5-5-5-5-5-5----||
|
| S S  S  S  S  S  S  S S S S S S S S S
|------------------------------------------||
|-----------------------------------------o||
|------------------------------------------||
|------------------------------------------||
|-----------13-13-10-10-------------------o||
|-8-8-12-12-------------8-8-8-8-8-8-8-8----||


     S  S  S  S  S  S  S  S  S  S  S  S  S  S  S  S
||--------------------------------------------------|
||o-------------------------------------------------|
||--------------------------------------------------|
||--------------------------------------------------|
||o-------------12-12--8--8-------------12-12--8--8-|
||---7--7--9--9--------------7--7--9--9-------------|
|
|    S  S  S  S  S  S  S  S  S  S  S  S  S  S  S  S
||--------------------------------------------------|
||o-------------------------------------------------|
||--------------------------------------------------|
||--------------------------------------------------|
||o-------------15-15-12-12-------------15-15-12-12-|
||--11-11-14-14-------------11-11-14-14-------------|


   S  S  S  S  S  S  S  S  S  S  S  S  S  S  S  S
|---------------------------------------------------||
|--------------------------------------------------o||
|---------------------------------------------------||
|---------------------------------------------------||
|-------------12-12--8--8--------------------------o||
|--7--7--9--9--------------7--7--7--7--7--7--7--7---||
|
|  S  S  S  S  S  S  S  S  S  S  S  S  S  S  S  S
|---------------------------------------------------||
|--------------------------------------------------o||
|---------------------------------------------------||
|---------------------------------------------------||
|-------------15-15-12-12--------------------------o||
|-11-11-14-14-------------11-11-11-11-11-11-11-11---||


   S  S  S  S  S  S  S  S  S  S  S  S  S  S  S  S
|-------------------------------------------------|
|-------------------------------------------------|
|-------------------------------------------------|
|-------------------------------------------------|
|-------10-13-------10-13-------10-13-------10-13-|
|--8-12--------8-12--------8-12--------8-12-------|
|
|  S  S  S  S  S  S  S  S  S  S  S  S  S  S  S  S
|-------------------------------------------------|
|-------------------------------------------------|
|-------------------------------------------------|
|-------------------------------------------------|
|-------13-16-------13-16-------13-16-------13-16-|
|-12-15-------12-15-------12-15-------12-15-------|


   S  S  S  S  S  S  S  S Q.   +E
|-----------------------------------|
|-----------------------------------|
|-----------------------------------|
|-----------------------------------|
|-------10-13-------10-13-----------|
|--8-12--------8-12-------4----(4)\-|
|
|  S  S  S  S  S  S  S  S Q.   +E
|-----------------------------------|
|-----------------------------------|
|-----------------------------------|
|-----------------------------------|
|-------13-16-------13-16-----------|
|-12-15-------12-15-------7----(7)\-|


   Breakdown
    E E E E E E E E   E E E E E E  E E  E  E E E
||------------------|-----------------------------||
||o-----------------|----------------------------o||
||------------------|-----------------------------||
||------------------|-----------------------------||
||o-0-0-0-0---------|-0-0-0-0--------------------o||
||--0-0-0-0-4-5-4-5-|-0-0-0-0-4-5--7-4--8--7-5-4--||
|
|   E E E E E E E E   E E E E E E  E E  E  E E E
||------------------|-----------------------------||
||o-----------------|----------------------------o||
||------------------|-----------------------------||
||------------------|-----------------------------||
||o-0-0-0-0---------|-0-0-0-0--------------------o||
||--0-0-0-0-7-8-7-8-|-0-0-0-0-7-8-11-7-12-11-8-7--||


    Gtr II
    E E E E E E E E   E E E E E E E E   E E E E
||------------------|-----------------|---------|
||o-----------------|-----------------|---------|
||------------------|-----------------|---------|
||------------------|-----------------|---------|
||o-0-0-0-0-4-5-4-5-|-0-0-0-0-4-5-7-4-|-8-7-5-4-|
||--0-0-0-0-4-5-4-5-|-0-0-0-0-4-5-7-4-|-8-7-5-4-|


                                      1.           2.
                                           ~~~
  E E E E E E E E   E E E E E E E E   E E  Q       E E E E
|-----------------|-----------------|-----------||----------|
|-----------------|-----------------|----------o||----------|
|-----------------|-----------------|-----------||----------|
|-----------------|-----------------|-----------||----------|
|-0-0-0-0-5-4-5-4-|-0-0-0-0-5-4-7-4-|-8-7------o||-8-7-5-4--|
|-0-0-0-0-5-4-5-4-|-0-0-0-0-5-4-7-4-|-8-7-[3]---||-8-7-5-4--|


 Pre - Solo
  Q=130
 4/4
  Gtr I
  TP  TP  TP TP   TP  TP  TP TP   TP  TP  TP TP   ~
  Q   Q   Q  Q    Q   Q   Q  Q    Q   Q   Q  Q    H    H
|---------------|---------------|---------------|-----------|
|---------------|---------------|---------------|-----------|
|---------------|---------------|---------------|-----------|
|---------------|---------------|---------------|-----------|
|---------------|---------------|---------------|-7----1----|
|-5---8---7--4--|-5---8---7--4--|-5---8---7--4--|-7----1----|
|
| Gtr II
| TP  TP  TP TP   TP  TP  TP TP   TP  TP  TP TP   ~
| Q   Q   Q  Q    Q   Q   Q  Q    Q   Q   Q  Q    H    H
|---------------|---------------|---------------|-----------|
|---------------|---------------|---------------|-----------|
|---------------|---------------|---------------|-----------|
|---------------|---------------|---------------|-----------|
|---------------|---------------|---------------|-7----1----|
|-8--12--11--7--|-8--12--11--7--|-8--12--11--7--|-7----1----|


 Solo 1
  H    H      W          H    Q  E E   W
|-----------|----------|-------------|------|
|-----------|----------|-------------|------|
|-----------|----------|-------------|------|
|-----------|----------|-------------|------|
|-5----8----|-9--------|-5----4--1-4-|-0----|
|-5----8----|-9--------|-5----4--1-4-|-0----|
|
|-----------|----------|-------------|------|
|-----------|----------|-------------|------|
|-----------|----------|-------------|------|
|-----------|----------|-------------|------|
|-----------|----------|-------------|------|
|-----------|----------|-------------|------|


  H    H       W          H    Q  E E   W
|-----------|-----------|-------------|------|
|-----------|-----------|-------------|------|
|-----------|-----------|-------------|------|
|-----------|-----------|-------------|------|
|-5----8----|-11--------|-5----4--1-4-|-0----|
|-5----8----|-11--------|-5----4--1-4-|-0----|
|
|-----------|-----------|-------------|------|
|-----------|-----------|-------------|------|
|-----------|-----------|-------------|------|
|-----------|-----------|-------------|------|
|-----------|-----------|-------------|------|
|-----------|-----------|-------------|------|


   Solo 2
     |---------------------------------3----------------------------------|
     S  S  S  S  S  S  S  S  S  S  S  S  S  S  S  S  S  S  S  S  S  S  S  S
||--------------15-19-15----------------15-19-15----------15-19-15----------|
||o----------17----------17----------17----------17----17----------17-------|
||--------16----------------16----16----------------16----------------16----|
||-----17----------------------17----------------------------------------17-|
||o-17----------------------------------------------------------------------|
||--------------------------------------------------------------------------|


   |---------------------------------3----------------------------------|
   S  S  S  S  S  S  S  S  S  S  S  S  S  S  S  S  S  S  S  S  S  S  S  S
|-------------13-17-13----------------13-17-13----------13-17-13-----------|
|----15----15----------15----------15----------15----15----------15--------|
|-14----------------------14----14----------------14----------------14-----|
|-------15-------------------15----------------------------------------15--|
|--------------------------------------------------------------------------|
|--------------------------------------------------------------------------|


   |---------------------------------3----------------------------------|
   S  S  S  S  S  S  S  S  S  S  S  S  S  S  S  S  S  S  S  S  S  S  S  S
|-------------12-16-12----------------12-16-12----------12-16-12----------|
|----14----14----------14----------14----------14----14----------14-------|
|-13----------------------13----13----------------13----------------13----|
|-------13-------------------14----------------------------------------14-|
|-------------------------------------------------------------------------|
|-------------------------------------------------------------------------|


         T        T        T        T        T        T
   |------------------------3-------------------------|
   S  S  S  S  S  S  S  S  S  S  S  S  S  S  S  S  S  S
|-11-14-17-11-14-19-11-14-20-11-14-19-11-14-17-11-14-19---||
|--------------------------------------------------------o||
|---------------------------------------------------------||
|---------------------------------------------------------||
|--------------------------------------------------------o||
|---------------------------------------------------------||


 Solo 3
   |-----------3-----------|        |------3-------|
   S  S  S  S  S  S  S  S  S  Q     S  S  S  S  S  S
|-15-13-12-------------------------------------------|
|----------15-13-12----------------15-13-12----------|
|-------------------15-13-12-12b14r=========15-13-12-|
|----------------------------------------------------|
|----------------------------------------------------|
|----------------------------------------------------|


               ~~~~
                     |--------------------3--------------------|
   H           H     S  S  S  S  S  S  S  S  S  S  S  S  S  S  S
|-----------------|-------------------12-13-15----------12-13-15--|
|-----------------|----------12-13-15----------12-13-15-----------|
|-12b14r=====[12]-|-12-13-15--------------------------------------|
|-----------------|-----------------------------------------------|
|-----------------|-----------------------------------------------|
|-----------------|-----------------------------------------------|


                              ~~~~~~~~~~~~~~
   |-----------3-----------|
   S  S  S  S  S  S  S  S  S  Q   +E   +E
|-------------------------------------------|
|-12-13-15----------------------------------|
|----------12-13-15-------------------------|
|-------------------12-13-15-12--(12)-(12)\-|
|-------------------------------------------|
|-------------------------------------------|


Pick tap
---T-------
C#-18-12-15
G#---------   (X4)
E----------

Pick tap
---T-------
C#-20-12-15
G#---------   (X4)
E----------

Pick tap
---T-------
C#-22-12-15
G#---------   (X4)
E----------

Pick tap
---T-------
C#-20-12-15
G#---------   (X4)
E----------

Pick tap
---T-------
C#-18-12-15
G#---------   (X2)
E----------


Pick tap
---T-------
C#-20-12-15
G#---------   (X2)
E----------

Pick tap
---T-------
C#-22-12-15
G#---------   (X2)
E----------

Pick tap
---T-------
C#-20-12-15
G#---------   (X2)
E----------


Pick tap
---T-------
C#-18-12-15
G#---------   (X2)
E----------

Pick tap
---T-------
C#-20-12-15
G#---------   (X2)
E----------

C#-12(bend)-----
G#--------------
E---------------

  E E E E E E E E   E E E E
|-----------------|------------|
|-----------------|------------|
|-----------------|------------|
|---------2-1-----|-2-1--------|
|-----------------|------------|
|-2-1-2-1-----1-1-|-----1-1----|
|
| E E E E E E E E   E E E E
|-----------------|------------|
|-----------------|------------|
|-----------------|------------|
|---------5-4-----|-5-4--------|
|-----------------|------------|
|-5-4-5-4-----4-4-|-----4-4----|


thats it so far people.
Suggest correction
Creating personal tab
Creating personal tab
You can edit any tab online and save it as your Personal.

You can edit, replace or remove any tab part or add personal notes – all changes will be seen only by you.

Personal tabs can be accessed anytime from any device, even offline.
Learn more »
Give kudos to tab author, rate the tab!
1 2 3 4 5
comments
print report bad tab
1 comment total.
0 reply
loveliesdeadx 31 Aug 03, 2008 06:43 AM

well props for giving it a shot!
i believe the pre solo is more like
-------------- 8- 1
8t-12t-11t-7t- - 8 -1

judging from the video

guest
You may want to rate the tab now too:
select rating
Wanna post a correction for this tab? Suggest correction