Oops, an error
Loading. Please wait.

Bury My Sins - The Longest Storm Tab

21 views 1 this week
no commentswrite comment
1 2 3 4 5
please rate
add to favorites
launch autoscroll
font size
0
reset
how to read this tab
guitar tuner
Autoscroll
slow
fast
+/-
esc
set tempo
stop
Help us to improve Ultimate-Guitar.com Take our survey!
×
Contributor
Difficulty
Tuning
intermediate
C G C F A D
Song    : The Longest Storm
Artist  : Bury My Sins
Album   : King Of All Fears
Year    : 2007
Genre   : Metalcore/Hardcore
Country : Germany
Tuning  : Drop C (CGCFAD)
Tab     : icanseedeadhorizons


Intro
|------------|--------------|------------|-----------|
|------------|--------------|------------|-----------|
|------------|--------------|------------|-----------|
|------------|--------------|------------|-----------| 1x
|-5-5-3h5p3-5|-8-7-10-10p8p7|-5-5-3h5p3-5|-8-8-3~~3~~|
|0-0-0-----0-|0-0-0--0------|0-0-0-----0-|0-0-0------|

Verse
|------------|------------------|------------|------------|
|------------|------------------|------------|------------|
|------------|------------------|------------|------------|
|------------|------------------|------------|------------| 4x
|-8-8-7h8p7-8|-12-10-13-13p12p10|-8-8-7h8p7-8|-12-12-8-7~~|AH last note
|0-0-0---0---|0--0--0--0--------|0-0-0---0---|0--0--0-----|

figure out the rhythm while listening to the song
                                  1.                 2.
|-----------------------|         |-------------|    |---------------|
|-----------------------|         |-------------|    |---------------|
|-----------------------|         |-------------|    |---------------|
|-----------------------| 3x then |-------------|    |---------------|
|000-000--0-0-0-0--0-0-0|         |6L-0-0-0-5--3|    |6L-0-0-0-5--3AH|
|000-000--0-0-0-0--0-0-0|         |6L-0-0-0-5--3|    |6L-0-0-0-5---- |


|----------------|-------------|----------------|----------------------|
|----------------|-------------|----------------|----------------------|
|----------------|-------------|----------------|----------------------|
|----------------|-----------3~|----------------|----------------------|2x
|---3h5-6h5-3h5p3|---3h5-6h5---|---3h5-6h5-3h5p3|---13p12p10----12p10p8| 
|000---0---0-----|000---0---0--|000---0---0-----|000---------000-------|

then...
|-----------------|--------------|-----------------|----------------------|
|-----------------|--------------|-----------------|----------------------|
|-----------------|--------------|-----------------|----------------------|
|-----------------|------------7~|-----------------|----------------------|2x
|---7h8-10h8-7h8p7|---7h8-10h8---|---7h8-10h8-7h8p7|---13p12p10----12p10p8|
|000---0----0-----|000---0----0--|000---0---0------|000---------000-------|

Verse
|------------|------------------|------------|------------|
|------------|------------------|------------|------------|
|------------|------------------|------------|------------|
|------------|------------------|------------|------------|4x
|-8-8-7h8p7-8|-12-10-13-13p12p10|-8-8-7h8p7-8|-12-12-8-7~~|
|0-0-0---0---|0--0--0--0--------|0-0-0---0---|0--0--0-----|


|-----------------|--------------|-----------------|----------------------|
|-----------------|--------------|-----------------|----------------------|
|-----------------|--------------|-----------------|----------------------|
|-----------------|------------7~|-----------------|----------------------|2x
|---7h8-10h8-7h8p7|---7h8-10h8---|---7h8-10h8-7h8p7|---13p12p10----12p10p8|
|000---0----0-----|000---0----0--|000---0---0------|000---------000-------|


|-----------|---------|----------------|-----------|---------|---------|
|-----------|---------|----------------|-----------|---------|---------|
|-----------|---------|----------------|-----------|---------|---------|
|0L-------7~|0L-----7~|----------------|0L-------7~|0L-----7~|8L-7-5-0L|2x
|0L--7h8p7--|0L--7h8--|13p12p10-12p10p8|0L--7h8p7--|0L--7h8--|8L-7-5-0L| 
|0L---------|0L-------|----------------|0L---------|0L-------|8L-7-5-0L|

Solosection (listen to the song for the correct timing)

|------------|----------------|------------|-----------------|
|------------|----------------|------------|-----------------|
|------------|----------------|------------|-----------------|
|-----------7|-----------7----|-----------7|---------7-------|
|0L--7h8h10--|0L--7-8-10--10-8|0L--7h8h10--|0L--8-10---10-8-7|
|0L----------|0L--------------|0L----------|0L---------------|

|------------|----------------|-----------------------|
|------------|----------------|-----------------------|
|------------|----------------|-----------------------|
|-----------7|-----------7----|-----------------------|
|0L--7h8h10--|0L--7-8-10--10-8|\13~~12-10-8-10\12-10-8|
|0L----------|0L--------------|-----------------------|

|-------|-------|-------|----------|
|-------|-------|-------|----------|
|-------|-------|-------|----------|
|-------|-------|-------|----------| fast
|55-5-5-|57-7-7-|78-8-8-|810-10-10-|
|-------|-------|-------|----------|

|-----------------------|-----------------------|----------------|---------------|
|-----------------------|-----------------------|----------------|---------------|
|-----------------------|-----------------------|----------------|---------------|
|-----------------------|-----------------------|----------------|---------------| faster
|1012-12-12-12-12-12-12-|1210-10-10-10-10-10-10-|108-8-8-8-8-8-8-|87-7-7-7-7-7-7-|
|-----------------------|-----------------------|----------------|---------------|

|-------|-------|-------|----------|-----------|---------------------------|
|-------|-------|-------|----------|-----------|---------------------------|
|-------|-------|-------|----------|-----------|---------------------------|
|-------|-------|-------|----------|-----------|-------10h12-10------------|
|75-5-5-|57-7-7-|78-8-8-|810-10-10-|1012-12-12-|-10-12---------12-10-12-10-|
|-------|-------|-------|----------|-----------|---------------------------|


|-----------|---------------------|-----------|---------------------|
|-----------|---------------------|-----------|---------------------|
|-----------|---------------------|-----------|---------------------|
|-----------|---------------------|-----------|---------------------|
|-8-8-101010|-8--8-10101010-7-8888|-8-8-101010|-8--8-10101010-7-888~|
|0-0--------|0--0-----------------|0-0--------|0--0-----------------|

|-----------|---------------------|-----------------------|
|-----------|---------------------|-----------------------|
|-----------|---------------------|-----------------------|
|-----------|---------------------|-----------------------|
|-8-8-101010|-8--8-10101010-7-8888|\13~~12-10-8-10\12-10-8|
|0-0--------|0--0-----------------|-----------------------|


Outro
|----------|----------------------|----------|-------------------------------|
|----------|----------------------|----------|-------------------------------|
|----------|----------------------|----------|-------------------------------|
|----------|----------------------|----------|-------------------------------|2x
|---7h8-8~~|------7h8-10p8p7-8p7p5|---7h8-8~~|-------------------------------| 
|000---0---|000-00---0------------|000---0---|000-00-000-00-88-77-55-77-55-33|

|-------------|----------------------------|-------------|------------------------------| 
|-------------|----------------------------|-------------|------------------------------| 
|-------------|----------------------------|-------------|------------------------------| 
|-------------|----------------------------|-------------|------------------------------| 
|---10h10-12~~|------10h12-13p12p10-12-10-8|---10h12-12~~|------------------------------| 
|000-----0----|000-00-----0----------------|000-----0----|000-0-000-00-88-77-55-77-55-33|

|-------------|----------------------------|------|------------------------------|------| 
|-------------|----------------------------|------|------------------------------|------|
|-------------|----------------------------|------|------------------------------|------|
|-------------|----------------------------|0x----|------------------------------|0x----|
|---10h10-12~~|------10h12-13p12p10-12-10-8|0x----|------------------------------|0x----|
|000-----0----|000-00-----0----------------|0x----|000-0-000-00-88-77-55-77-55-33|0x----|
comments
We did not receive enough feedback on this tab! Please rate:
print report bad tab
1 2 3 4 5
I want to post or [tab]
guest
You may want to rate the tab now too:
select rating
Please do not post tabs as comments. Select "correction" instead!