Oops, an error
Loading. Please wait.

Bury Us All - Im Still Standing Tab

241 views 1 this week
no commentswrite comment
1 2 3 4 5
3 more votes to show rating
add to favorites
launch autoscroll
font size
0
reset
how to read this tab
guitar tuner
Autoscroll
slow
fast
+/-
esc
set tempo
stop
Help us to improve Ultimate-Guitar.com Take our survey!
×
-------------------------------------------------------------------------------
                             I'm Still Standing- Bury Us All
-------------------------------------------------------------------------------
Tabbed by:Chase
Email:

Tuning: B

e|--------------------------------------------------------------------------|
B|--------------------------------------------------------------------------|
G|--------------------------------------------------------------------------|
D|--------------------------------------------------------------------------|
A|--------------------------------------------------------------------------|
E|-0--0--0--0--0--3--3--3--3--3--8--8--8--8--8---5--7--3--0-----------------|

e|--------------------------------------------------------------------------|
B|--------------------------------------------------------------------------|
G|--------------------------------------------------------------------------|
D|--------------------------------------------------------------------------|
A|--------------------------------------------------------------------------|
E|-0--0--0--0--0--3--3--3--3--3--8--8--8--8--8---5-5-5--3-3-3--2-2-2--------|

x2

e|--------------------------------------------------------------------------|
B|--------------------------------------------------------------------------|
G|--------------------------------------------------------------------------|
D|--------------------------------------------------------------------------|
A|--------------------------------5-7-5-3-5-3-2-3-2-------------------------|
E|-0-0-0-3-5-3-0-0-0-5-7-5-0-0-0--------------------------------------------|

x4

e|--------------------------------------------------------------------------|
B|--------------------------------------------------------------------------|
G|--------------------------------------------------------------------------|
D|--------------------------------------------------------------------------|
A|---------------------------5-7-5-3-5-3-2-3-2------------------------------|
E|-0-0-0-3-5-0-0-0-5-7-0-0-0------------------------------------------------|

x2

Chorus: "And you say that we're nothing..."
e|--------------------------------------------------------------------------|
B|--------------------------------------------------------------------------|
G|--------------------------------------------------------------------------|
D|--------------------------------------------------------------------------|
A|------------------------------3-3-2---------------------------------------|
E|-0--0-0-0--8--8-7-5-3-3---3-5-------3-------------------------------------|

e|--------------------------------------------------------------------------|
B|--------------------------------------------------------------------------|
G|--------------------------------------------------------------------------|
D|--------------------------------------------------------------------------|
A|------------------------------3-3-2---------------------------------------|
E|-0--0-0-0--8--8-8-8--3----3-5-------3-------------------------------------|

x2

e|--------------------------------------------------------------------------|
B|--------------------------------------------------------------------------|
G|--------------------------------------------------------------------------|
D|--------------------------------------------------------------------------|
A|--------------------------------5-7-5-3-5-3-2-3-2-------------------------|
E|-0-0-0-3-5-3-0-0-0-5-7-5-0-0-0--------------------------------------------|

x2

e|--------------------------------------------------------------------------|
B|--------------------------------------------------------------------------|
G|--------------------------------------------------------------------------|
D|--------------------------------------------------------------------------|
A|---------------------------5-7-5-3-5-3-2-3-2------------------------------|
E|-0-0-0-3-5-0-0-0-5-7-0-0-0------------------------------------------------|

x2

e|--------------------------------------------------------------------------|
B|--------------------------------------------------------------------------|
G|--------------------------------------------------------------------------|
D|-------3-2-0-3-2-0-3-2-0-3-2-0-3-2-0-3-2-0-3-2-0--------------------------|
A|--------------------------------------------------------------------------|
E|-000----------------------------------------------------------------------|

x2

e|--------------------------------------------------------------------------|
B|--------------------------------------------------------------------------|
G|--------------------------------------------------------------------------|
D|-------3-2-0-5-3-0-7-5-0-8-7-0-10-8-0-6-7-0-------------------------------|
A|--------------------------------------------------------------------------|
E|-000----------------------------------------------------------------------|

x2

e|--------------------------------------------------------------------------|
B|--------------------------------------------------------------------------|
G|--------------------------------------------------------------------------|
D|-------3-2-0-5-3-0-7-5-0-8-7----------------------------------------------|
A|-----------------------------8-7-0-7-5-0-5-3-0----------------------------|
E|-000----------------------------------------------------------------------|

x4

Then Back to chorus once...


| /  slide up
| \  slide down
| h  hammer-on
| p  pull-off
| ~  vibrato
| +  harmonic
| x  Mute note
Suggest correction
Give kudos to tab author, rate the tab!
1 2 3 4 5
comments
print report bad tab
guest
You may want to rate the tab now too:
select rating
Wanna post a correction for this tab? Suggest correction