Oops, an error
Loading. Please wait.

But You Know You Do - Slowmotion Skyrocket Tab

251 views 3 this week
no commentswrite comment
1 2 3 4 5
please rate
add to favorites
launch autoscroll
font size
0
reset
how to read this tab
guitar tuner
Autoscroll
slow
fast
+/-
esc
set tempo
stop
Help us to improve Ultimate-Guitar.com Take our survey!
×
Author
Difficulty
Tuning
intermediate
D# G# C# F# A# D#
Song by old local Gainesville,Fl band.
I didn't write this tab, just throwing it up on here for fans.
|||guitar is 1/2 step down|||
This is a rough ver. of it so you will have to listen to the song to get a better feel 
how to play it.
There are about 3 different guitars playing in this song I believe, so some parts are trick.

Eb|---0---0---0---0---0|
Bb|---0---0---0---0---0|
Gb|---4---6---9---11--6|
Db|---2---4---9---9---7|
Ab|---4---6---7---11--7|
Eb|---X---X---X---X---5|
Intro
|0:00-0:45|

Eb|---0---0---0-----0---0---0-----0---0---0-----0---0---0-----0---0---0|--0|
Bb|---0---0---0-----0---0---0-----0---0---0-----0---9---0-----0---0---0|--0|
Gb|---11--11--11----13--11--9-----9---9---9-----11--9---9-----9---9---9|--6|
Db|---9---9---9-----9---9---9-----9---9---9-----9---9---9-----9---9---9|--7|
Ab|---11--11--11----11--11--11----11--11--11----11--11--7-----7---7---7|--7|
Eb|---X---X---X-----X---X---X-----X---X---X-----X---X---X-----X---X---X|--5|
|0:46-1:06|

Eb|---/9---7---------|             |---0----0----0|
Bb|----------10--9---|             |---0----0----0|Last chord rings on
Gb|-----------------9|             |---1----3----6|the second time through.
Db|------------------|             |---2----4----7|
Ab|------------------|             |---2----4----7|
Eb|------------------| x2          |---0----2----5| x2
                                                                                         
               |1:52-2:00|                          Chorus |2:00-2:30|


Eb|----0---0---0---0---0---0---0---0---0---0---0---0----0---0---0---0--|
Bb|--5---5---5---5---7---7---9---9---10---9---7---5---4/5--5---5---5---|
Gb|--------------------------------------------------------------------|
Db|--------------------------------------------------------------------|
Ab|--------------------------------------------------------------------|
Eb|--------------------------------------------------------------------|
-
--0---0---0---0----0---0---0---0--|        |---------|
10---9---7---5---4/5--5---5---5---|        |-10-9-7--|
----------------------------------|        |---------|
----------------------------------|        |---------|
----------------------------------|        |---------|
----------------------------------| x2     |---------|
2:30-3:00
Gotta play around with this part, listen
to the song to figure out the right order.
Over this the rhythm guitar plays the chorus
with a different strumming pattern

Eb|---0----0----0|
Bb|---0----0----0|
Gb|---1----3----6|
Db|---2----4----7|
Ab|---2----4----7|
Eb|---0----2----5| x4

|3:00-3:55|
Chorus Again

Eb|-0-|
Bb|-0-|
Gb|-1-|
Db|-2-|
Ab|-2-|
Eb|-0-|

End on this
Suggest correction
Give kudos to tab author, rate the tab!
1 2 3 4 5
comments
print report bad tab
guest
You may want to rate the tab now too:
select rating
Wanna post a correction for this tab? Suggest correction