Oops, an error
Loading. Please wait.

C Saint-Seans - L Elephant Bass Tab

139 views 1 this week
no commentswrite comment
1 2 3 4 5
2 more votes to show rating
add to favorites
launch autoscroll
font size
0
reset
guitar tuner
Autoscroll
slow
fast
+/-
esc
set tempo
stop
Help us to improve Ultimate-Guitar.com Take our survey!
×
Author
Difficulty
intermediate
This is an old song from "le cirque de animaux". It's a bass solo that's recognizable by 
stand-up bass players. (I mean classical bassists)
This is my remix, any questions? Just email me at tabguy13@yahoo.com


allegro y pomposo
g/------------------------------1-0-1-3-0-----0---------|
d/---------3-1-0-1------------------------1-3---1---0-1-|
a/-1/6-6-6------------1/8-8-8---------------------3-----|
e/------------------------------------------------------|

g/----------------------------------------------7-5-3-1-|
d/-3-3-1-0-------------3-1-0-1--------------1-0---------|
a/---------3-1-1/6-6-6---------3-3/8-8-8----------------|
e/------------------------------------------------------|
                                       v~~~

g/-0-----------------0-3-8-3-1-0---1-4-9-4--2-1---6-----3---|
d/---3-1-----0-------------------3--------------4-----3---1-|
a/-------3-0----------------------------------------1-------|
e/-------------3--------------------------------------------|
Suggest correction
Give kudos to tab author, rate the tab!
1 2 3 4 5
comments
print report bad tab
guest
You may want to rate the tab now too:
select rating
Wanna post a correction for this tab? Suggest correction