Oops, an error
Loading. Please wait.

Caje - Not Fair Tab

193 views 3 this week
no commentswrite comment
1 2 3 4 5
please rate
add to favorites
launch autoscroll
font size
0
reset
how to read this tab
guitar tuner
Tab Pro tools
  • play this tab
  • loop segment
  • change instrument
  • show fretboard
  • metronome
Autoscroll
slow
fast
+/-
esc
set tempo
stop
Contributor
uning: Standard
Guitar 1 Joe
Guitar 2 Curtis

Gtr 1
Intro Riff:
e|-------------------------------------------------------------|
b|-------------------------------------------------------------|
g|----------------------------3ph-------------------------3ph--| x2
d|---------------------3-5-------------------------3-5---------|
a|-----------5--6--5-3-----4-3----------5--6--5-3------4-3-----|
e|---3-6-5-3--3--6----2---------3-6-5-3--3--6-----2------------|

Gtr 2
Build up of feedback whist holding a high G chord,


Gtr 1
e|-------------------------------------------------------------|
b|-------------------------------------------------------------|
g|----------------------------3ph----------------7-5-----------|
d|---------------------3-5----------------------6----6-5-3-----|
a|-----------5--6--5-3-----4-3----------5--6---5-----------4ph-|
e|---3-6-5-3--3--6----2---------3-6-5-3--3--6------------------|
                                                [ending riff]

Gtr 2
On Third time, Violently strum G Chord, pick slide and play ending of riff in time with Gtr 1,
e|-------------------------------------------------------------|
b|-------------------------------------------------------------|
g|---4'''''x//////////////////////////////////---7-5-----------|
d|---5'''''x//////////////////////////////////--6----6-5-3-----|
a|---5'''''x//////////////////////////////////-5-----------4ph-|
e|---3'''''x//////////////////////////////////-----------------|
                                               [ending riff]
Both Guitars play the first riff for another 4 times.

Riff 2:

Gtr 1
e|----------------------------------------------------|
b|----------------------------------------------------|
g|------------------------------x-1212/1111/88/77--x--|
d|---5-------------77/10/8------x-1212/1111/88/77--x--| x8
a|---555555--55555-77/10/888888-x-1010/9-9-/66/55--x--|
e|---333333--33333-55/8-/666666-----------------------|

pm    '''''  '''''        '''''

Gtr 2
e|---------3--------------------------------------------|
b|---------3--------------------------------------------|
g|------------------22-5/3--------x-1212/1111/88/77--x--|
d|---5--------------22-5/33333333-x-x-x-/x-x/-xx/xx--x--| x8
a|---555555--55555--00-3/11111111-x-1010/9-9/-66/55--x--|
e|---333333--33333--------------------------------------|

pm    '''''  '''''       ''''''''

On the 8th time after the D Chord pull off to an Em Chord and let ring throughout the 
fill for 2 bars, then kick into riff 3,

Riff 3:

Gtr 1
e|--------------------------------------------------------------------------|
b|--------------------------------------------------------------------------|
g|-------------------------3------------------------------------------------|
d|-------------3---4---3---3------------------------------------------------| x4
a|-------------3---4---3---1---14141414141414141414/13131313/10101010/9999--|
e|---0-0-0-0-0-1-0-2-0-1-0-----12121212121212121212/11111111/8-8-8-8/-7777--|
 pm  ''''''''''  ''  ''  ''    '''''''''''''''''''''''''''''''''''''''''''


Gtr 2
e|---------------------------------------------------------------------------|
b|---------------------------------------------------------------------------|
g|---------------------------------------------------------------------------|
d|-------------3---4---3-----------------------------------------------------|
a|-------------3---4---3-------7ph==================6ph=====3ph======2ph==---|
e|---0-0-0-0-0-1-0-2-0-1-0-----xxxxxxxxxxxxxxxxxxxxxxxxxxxxxxxxxxxxxxxxxxxxx-|
 pm  '''''''''' ''  ''  ''

Also for and extra guitar could add an overdub for the heavily muted part in Riff 3, 
Wah-wah and bridge pickup,

                          e|---0--------------------0-------0--------0--------|
                          b|---17ph=================16ph====13ph=====12ph==---|
                          g|--------------------------------------------------|
                          d|--------------------------------------------------|
                          a|--------------------------------------------------|
                          e|--------------------------------------------------|

Riff 4:

Gtr 1
e|---------------------------------|
b|---------------------------------|
g|----------------5p0--------------| x4
d|---------5p0----5p0--------------|
a|---------5p0----3p0---3333333-0--|
e|---0-0-0-3p0--0-----0-1111111-0--|
 pm  '''''     ''     ''''''''''

Gtr 2
e|---------------------------------|
b|---------------------------------|
g|---------------------------------| x4
d|---------------10----------------|
a|---7-7-7-10-7-7--10-7h8p7h8p7-7--|
e|---------------------------------|

Riff 5
similar rhythm to Riff 4

Gtr 1
e|--------------------------------|
b|--------------------------------|
g|-----------------8--------------|
d|---5-5-5-5/8/5-8-8-8-5/4-----5--| x6
a|---5-5-5-5/8/5-8-6-8-5/44444/5--|
e|---3-3-3-3/6/3-6-6-6-3/66666/3--|

Gtr 2
e|-----------------------------------------------------11-----------------------|
b|----------------------------------------8-8-8-8-11-8---11-8-8h9p8h9p8h9p8-8---|
g|----------------8-------------------------------------------------------------|
d|---5-5-5-5-8-5-8-8--5-5h6p5h6p5h6p5-5-----------------------------------------|
a|------------------------------------------------------------------------------|
e|------------------------------------------------------------------------------|

On last time hold the G Note and let ring, while drums goes into a breakdown,
After 2 lines, Guitar 1 enters with riff 1, while guitar 2 does some guitar slides along 
neck while sliding notes in G scale, then the whole band re-enters with Riff 2, for 
8 bars. and Then finishes with 2 bars of Riff 5.

Order:
Riff 1
Riff 2
Riff 3
Riff 4
Riff 5
Riff 1 (breakdown)
Riff 2 x8
Riff 5 x2
comments
We did not receive enough feedback on this tab! Please rate:
print report bad tab
1 2 3 4 5
I want to post or [tab]
guest
You may want to rate the tab now too:
select rating
Please do not post tabs as comments. Select "correction" instead!