Oops, an error
Loading. Please wait.

Caleb Johnson- Never Look Back Tab

179 views 1 this week
no commentswrite comment
1 2 3 4 5
please rate
add to favorites
launch autoscroll
font size
0
reset
how to read this tab
guitar tuner
Autoscroll
slow
fast
+/-
esc
set tempo
stop
Help us to improve Ultimate-Guitar.com Take our survey!
×
Contributor
Difficulty
Tuning
novice
D A D G B E
Artist: Caleb Johnson
Song: Never Look Back


intro:
e|------------------------------------------------------------------------|
B|------------------------------------------------------------------------|
G|------------------------------------------------------------------------|
D|----5555555555555555-2222222222222222-0000000000000000-5555555555555555-|
A|----5555555555555555-2222222222222222-0000000000000000-5555555555555555-|
D|----5555555555555555-2222222222222222-0000000000000000-5555555555555555-|

e|------------------------------------------------------------------------|
B|------------------------------------------------------------------------|
G|------------------------------------------------------------------------|
D|----5555555555555555-1010101010101010-9999999999999999-5555555555555555-|
A|----5555555555555555-1010101010101010-9999999999999999-5555555555555555-|
D|----5555555555555555-1010101010101010-9999999999999999-5555555555555555-|


verse 1:
e|----------------------------------------|
B|----------------------------------------|
G|----------------------------------------|   REPEAT
D|----55555555-00000000-99999999-77777777-|    2X
A|----55555555-00000000-99999999-77777777-|
D|----55555555-00000000-99999999-77777777-|
      ******** ******** ******** ********

e|-------------------------------------------|
B|-------------------------------------------|
G|-------------------------------------------|   REPEAT
D|----5-5-5555--0-0-0000--9-9-9999--7-7-7777-|    2X
A|----5-5-5555--0-0-0000--9-9-9999--7-7-7777-|
D|----5-5-5555--0-0-0000--9-9-9999--7-7-7777-|


chorus:
e|----0000000000000000----------------------------------------------------|
B|----0000000000000000----------------------------------------------------|
G|----7777777777777777-7777777777777777------------------7777777777777777-|2X
D|----7777777777777777-7777777777777777-4444444444444444-7777777777777777-|
A|----0000000000000000-5555555555555555-4444444444444444-5555555555555555-|
D|----0000000000000000-5555555555555555-4444444444444444-5555555555555555-|


verse 2:
e|----------------------------------------|
B|----------------------------------------|
G|----------------------------------------|
D|----55555555-00000000-99999999-77777777-|
A|----55555555-00000000-99999999-77777777-|
D|----55555555-00000000-99999999-77777777-|
      ******** ******** ******** ********

e|------------------------------------------|
B|------------------------------------------|
G|------------------------------------------|
D|----55555555-00000000-99999999-77775h75h7-|
A|----55555555-00000000-99999999-77775h75h7-|
D|----55555555-00000000-99999999-77775h75h7-|
      ******** ******** ******** ****

e|-------------------------------------------|
B|-------------------------------------------|
G|-------------------------------------------|   REPEAT
D|----5-5-5555--0-0-0000--9-9-9999--7-7-7777-|    2X
A|----5-5-5555--0-0-0000--9-9-9999--7-7-7777-|
D|----5-5-5555--0-0-0000--9-9-9999--7-7-7777-|


pre chorus:
e|---------------------------------------------------------------------------|
B|---------------------------------------------------------------------------|
G|---------------------------------------------------------------------------|
D|----55555555-77777777-9999999999999999-55555555-77777777-22222222-55555555-|
A|----55555555-77777777-9999999999999999-55555555-77777777-22222222-55555555-|
D|----55555555-77777777-9999999999999999-55555555-77777777-22222222-55555555-|


chorus:
e|----0000000000000000----------------------------------------------------|
B|----0000000000000000----------------------------------------------------|
G|----7777777777777777-7777777777777777------------------7777777777777777-|2X
D|----7777777777777777-7777777777777777-4444444444444444-7777777777777777-|
A|----0000000000000000-5555555555555555-4444444444444444-5555555555555555-|
D|----0000000000000000-5555555555555555-4444444444444444-5555555555555555-|


bridge:
e|------------------00000000----------------000000000-|
B|------------------00000000----------------000000000-|
G|----999999-777777-77777777--999999-777777-777777777-|    REPEAT
D|----999999-777777-77777777--999999-777777-777777777-|      2X
A|----777777-555555-00000000--777777-555555-000000000-|
D|----777777-555555-00000000--777777-555555-000000000-|


chorus:
e|----0000000000000000----------------------------------------------------|
B|----0000000000000000----------------------------------------------------|
G|----7777777777777777-7777777777777777------------------7777777777777777-|2X
D|----7777777777777777-7777777777777777-4444444444444444-7777777777777777-|
A|----0000000000000000-5555555555555555-4444444444444444-5555555555555555-|
D|----0000000000000000-5555555555555555-4444444444444444-5555555555555555-|

       e|----0----|
       B|----0----|
end on G|----7----|   Let it ring
       D|----7----|
       A|----0----|
       D|----0----|


that's it.  whew.
comments
We did not receive enough feedback on this tab! Please rate:
print report bad tab
1 2 3 4 5
I want to post or [tab]
guest
You may want to rate the tab now too:
select rating
Please do not post tabs as comments. Select "correction" instead!