Oops, an error
Loading. Please wait.

Call To Riot - Jingle Bell Rock Tab

7,074 views 3 this week
no commentswrite comment
1 2 3 4 5
1 last vote to show rating
add to favorites
launch autoscroll
font size
0
reset
how to read this tab
guitar tuner
Autoscroll
slow
fast
+/-
esc
set tempo
stop
Help us to improve Ultimate-Guitar.com Take our survey!
×
Author
Difficulty
novice
For the Holiday season.   :]

 \- slide
(b)- bend
(v)- vibrato

                       Intro

e---14-14-14--14-14-14--14-17-----------------------|
B---15-15-15--14-14-14--15---15-17-17(b)-17-15-15---|(v)
G----------------------------------------------16---|(v)
D---------------------------------------------------|
A---------------------------------------------------|
E---------------------------------------------------|

                                     Jingle bell jingle bell...

e---777-666-4-6-4----4-6-4---4-6-4--------------------4-4-6-2\7---|(v)
B----------------4(v)-----4-7-----4--2-4-4-5-7-2-4-5-7------------|
G-----------------------------------------------------------------|
D-----------------------------------------------------------------|
A-----------------------------------------------------------------|
E-----------------------------------------------------------------|

                                       What a bright time...

e---7-7-9-7--4-7-9-7--7-7-6-4---7-7-9-7--4-7-9-7-------------|
B----------------------------7-4-------------------4-4-6-6-4-|
G-----------------------------------------------4-6-6-6------|
D------------------------------------------------------------|
A------------------------------------------------------------|
E------------------------------------------------------------|

                                            Giddy up jingle horse...

e---777-666-4-6-4----4-6-4---4(v)-4-77-99-77-4-7-9-77-6-4--77-6-4--|
B----------------4(v)-----4-7-----------------------------7------7-|
G------------------------------------------------------------------|
D------------------------------------------------------------------|
A------------------------------------------------------------------|
E------------------------------------------------------------------|

                                            Outro...
e---7--4-6-7-9-777777777----14-14-14-14-14-14-14-17------------|
B---------------------------15-15-15-14-14-14-15---15-17-19----|(V)
G--------------------------------------------------------------|
D--------------------------------------------------------------|
A--------------------------------------------------------------|
E--------------------------------------------------------------|

Enjoy
Suggest correction
Give kudos to tab author, rate the tab!
1 2 3 4 5
comments
print report bad tab
guest
You may want to rate the tab now too:
select rating
Wanna post a correction for this tab? Suggest correction