Oops, an error
Loading. Please wait.

Callum James - You tab

850 views 141 this week
no commentswrite comment
1 2 3 4 5
2 more votes to show rating
add to favorites
×
Save as Personal and add changes to this tab that will be seen only by you. Learn more ›
×
You can save this tab as Personal to edit and correct it or add notes. All changes will be seen only by you. Learn more »
launch autoscroll
font size
0
reset
how to read this tab
guitar tuner
edit
Autoscroll
slow
fast
+/-
esc
set tempo
stop
Author
Difficulty
About this tab version
This tab has the different finger picking patterns for each section of the song. However, you can use whichever is easiest to remember when playing. Was this info helpful? Yes No
[Intro]
                                                                               (x3)
e|----------------3----------------0---------------0---------------0---------|
B|--------1----------------1----------------1------------1-------------------|
G|---------------------------------------------------------------------------|
D|----3-------3-------3--------3----------------------0------0---------------|
A|-------------------------------------3-------3-----------------------------|
E|---------------------------------------------------------------------------|


e|------------0----------------0-----------------0------------------0--------|
B|----1---------------1----------------1------------------1------------------|
G|---------------------------------------------------------------------------|
D|---------------------------------------------------------------------------|
A|--0-----0------0--------0--------------------------------------------------|
E|---------------------------------3--------3--------3---------3-------------|


[Verse]
We used to walk in the night watch the city lights changing,
e|----------------3---------------3p0---------------0-----------------0------|
B|--------1----------------1----------------1---------------1----------------|
G|---------------------------------------------------------------------------|
D|----3-------3-------3---------------------------------0---------0----------|
A|-------------------------------------3-------3-----------------------------|
E|---------------------------------------------------------------------------|

Now I look in your eyes and feel like a stranger,                            
e|---------------3----0-----------------------------0-----------------0------|
B|-------1----------------1--------1--------1----------------1---------------|
G|---------------------------------------------------------------------------|
D|---3-------3-----------------3-------------------------0--------0----------|
A|--------------------------------------3-------3----------------------------|
E|---------------------------------------------------------------------------|

And I don’t know why everything changing,
e|---------------3----0-----------------------------0-----------------0------|
B|-------1----------------1--------1--------1----------------1---------------|
G|---------------------------------------------------------------------------|
D|---3-------3-----------------3-------------------------0--------0----------|
A|--------------------------------------3-------3----------------------------|
E|---------------------------------------------------------------------------|
You always took hold off me,
e|------------0----------------0-----------------0------------------0--------|
B|----1---------------1----------------1------------------1------------------|
G|---------------------------------------------------------------------------|
D|---------------------------------------------------------------------------|
A|--0-----0------0--------0--------------------------------------------------|
E|---------------------------------3--------3--------3---------3-------------|

So give me a smile and now I know your okay,         
e|---------------3----0-----------------------------0-----------------0------|
B|-------1----------------1--------1--------1----------------1---------------|
G|---------------------------------------------------------------------------|
D|---3-------3-----------------3-------------------------0--------0----------|
A|--------------------------------------3-------3----------------------------|
E|---------------------------------------------------------------------------|

These words on my mind I’m playing on them always,
e|---------------3----0-----------------------------0-----------------0------|
B|-------1----------------1--------1--------1----------------1---------------|
G|---------------------------------------------------------------------------|
D|---3-------3-----------------3-------------------------0--------0----------|
A|--------------------------------------3-------3----------------------------|
E|---------------------------------------------------------------------------|

It don’t feel right walking into old ways,
e|---------------3----0-----------------------------0-----------------0------|
B|-------1----------------1--------1--------1----------------1---------------|
G|---------------------------------------------------------------------------|
D|---3-------3-----------------3-------------------------0--------0----------|
A|--------------------------------------3-------3----------------------------|
E|---------------------------------------------------------------------------|

And watching you fall down on me,
e|------------0----------------0-----------------0------------------0--------|
B|----1---------------1----------------1------------------1------------------|
G|---------------------------------------------------------------------------|
D|---------------------------------------------------------------------------|
A|--0-----0------0--------0--------------------------------------------------|
E|---------------------------------3--------3--------3---------3-------------|

Cus I know in my mind there was something,
e|-------------0------------0---------------0---------------0----------------|
B|-----1-------------1--------------1---------------1------------------------|
G|---------------------------------------------------------------------------|
D|-------------------------------3------3-------3-------3--------------------|
A|--0------0------0------0---------------------------------------------------|
E|---------------------------------------------------------------------------|

And I know in my heart there was you,                       (x2)
e|-----------------0-------------------0----------------------|
B|------1--------------------1--------------------------------|
G|--0--------0----------0---------0--------0------------------|
D|------------------------------------------------------------|
A|------------------------------------------------------------|
E|------------------------------------------------------------|

[Chorus]
I see the look in your eyes fixed on another,
  C
e|---------------------------------------------------------------------------|
B|-------------1---------------1---------------1---------------1-------------|
G|------0-------------0---------------0----------------0---------------------|
D|---------------------------------------------------------------------------|
A|---3-----3-------3-------3------3--------3-------3-------3-----------------|
E|---------------------------------------------------------------------------|
Watch your fingers inter-twine wrapped round your knuckles,
   Am
e|---------------------------------------------------------------------------|
B|-------------1---------------1---------------1---------------1-------------|
G|------2-------------2---------------2----------------2---------------------|
D|---------------------------------------------------------------------------|
A|---0-----0-------0-------0------0--------0-------0-------0-----------------|
E|---------------------------------------------------------------------------|
Watch you laugh watch you cry and know my words will never do,
   F
e|---------------------------------------------------------------------------|
B|-------------1---------------1---------------1---------------1-------------|
G|------2-------------2---------------2----------------2---------------------|
D|---------------------------------------------------------------------------|
A|---3-----3-------3-------3------3--------3-------3-------3-----------------|
E|---------------------------------------------------------------------------|

   G
e|---------------------------------------------------------------------------|
B|-------------3---------------3---------------3---------------3-------------|
G|------0-------------0---------------0----------------0---------------------|
D|---------------------------------------------------------------------------|
A|---2-----2-------2-------2------2--------2-------2-------2-----------------|
E|---------------------------------------------------------------------------|
My dear I know we’re alright so call me in the morning,
  C
e|---------------------------------------------------------------------------|
B|-------------1---------------1---------------1---------------1-------------|
G|------0-------------0---------------0----------------0---------------------|
D|---------------------------------------------------------------------------|
A|---3-----3-------3-------3------3--------3-------3-------3-----------------|
E|---------------------------------------------------------------------------|
Take a look in my eyes see a fire dawning,
   Am
e|---------------------------------------------------------------------------|
B|-------------1---------------1---------------1---------------1-------------|
G|------2-------------2---------------2----------------2---------------------|
D|---------------------------------------------------------------------------|
A|---0-----0-------0-------0------0--------0-------0-------0-----------------|
E|---------------------------------------------------------------------------|
Take a match set alight to everything we ever knew,
   F
e|---------------------------------------------------------------------------|
B|-------------1---------------1---------------1---------------1-------------|
G|------2-------------2---------------2----------------2---------------------|
D|---------------------------------------------------------------------------|
A|---3-----3-------3-------3------3--------3-------3-------3-----------------|
E|---------------------------------------------------------------------------|

   G
e|---------------------------------------------------------------------------|
B|-------------3---------------3---------------3---------------3-------------|
G|------0-------------0---------------0----------------0---------------------|
D|---------------------------------------------------------------------------|
A|---2-----2-------2-------2------2--------2-------2-------2-----------------|
E|---------------------------------------------------------------------------|


[Verse 2]
I'm holding onto something like you
e|---------------3----0-----------------------------0-----------------0------|
B|-------1----------------1--------1--------1----------------1---------------|
G|---------------------------------------------------------------------------|
D|---3-------3-----------------3-------------------------0--------0----------|
A|--------------------------------------3-------3----------------------------|
E|---------------------------------------------------------------------------|
                                                                               (x2)
e|---------------3----------------------------------0-----------------0------|
B|-------1----------------1--------1--------1----------------1---------------|
G|---------------------------------------------------------------------------|
D|---3-------3-----------------3-------------------------0--------0----------|
A|--------------------------------------3-------3----------------------------|
E|---------------------------------------------------------------------------|


e|------------0----------------0-----------------0------------------0--------|
B|----1---------------1----------------1------------------1------------------|
G|---------------------------------------------------------------------------|
D|---------------------------------------------------------------------------|
A|--0-----0------0--------0--------------------------------------------------|
E|---------------------------------3--------3--------3---------3-------------|

Is it the look in your eyes that tells me all I knew,
e|---------------3----0-----------------------------0-----------------0------|
B|-------1----------------1--------1--------1----------------1---------------|
G|---------------------------------------------------------------------------|
D|---3-------3-----------------3-------------------------0--------0----------|
A|--------------------------------------3-------3----------------------------|
E|---------------------------------------------------------------------------|

And I took on a fight i knew I’d always loose,
e|---------------3----------------------------------0-----------------0------|
B|-------1----------------1--------1--------1----------------1---------------|
G|---------------------------------------------------------------------------|
D|---3-------3-----------------3-------------------------0--------0----------|
A|--------------------------------------3-------3----------------------------|
E|---------------------------------------------------------------------------|

Did I misread the signs your fingers slipping through,
e|---------------3----------------------------------0-----------------0------|
B|-------1----------------1--------1--------1----------------1---------------|
G|---------------------------------------------------------------------------|
D|---3-------3-----------------3-------------------------0--------0----------|
A|--------------------------------------3-------3----------------------------|
E|---------------------------------------------------------------------------|

I’ll hold on tight just to let go of you,
e|------------0----------------0-----------------0------------------0--------|
B|----1---------------1----------------1------------------1------------------|
G|---------------------------------------------------------------------------|
D|---------------------------------------------------------------------------|
A|--0-----0------0--------0--------------------------------------------------|
E|---------------------------------3--------3--------3---------3-------------|

Cus I know in my mind there something,
e|-------------0------------0---------------0---------------0----------------|
B|-----1-------------1--------------1---------------1------------------------|
G|---------------------------------------------------------------------------|
D|-------------------------------3------3-------3-------3--------------------|
A|--0------0------0------0---------------------------------------------------|
E|---------------------------------------------------------------------------|

And I knew in my heart there was you,                          (x2)
e|-----------------0-------------------0----------------------|
B|------1--------------------1--------------------------------|
G|--0--------0----------0---------0--------0------------------|
D|------------------------------------------------------------|
A|------------------------------------------------------------|
E|------------------------------------------------------------|


[Chorus 2]
I see that look in your eyes fixed on another,
  C
e|---------------------------------------------------------------------------|
B|-------------1---------------1---------------1---------------1-------------|
G|------0-------------0---------------0----------------0---------------------|
D|---------------------------------------------------------------------------|
A|---3-----3-------3-------3------3--------3-------3-------3-----------------|
E|---------------------------------------------------------------------------|
Watch your fingers inter-twine wrapped round your knuckles,
   Am
e|---------------------------------------------------------------------------|
B|-------------1---------------1---------------1---------------1-------------|
G|------2-------------2---------------2----------------2---------------------|
D|---------------------------------------------------------------------------|
A|---0-----0-------0-------0------0--------0-------0-------0-----------------|
E|---------------------------------------------------------------------------|
Watch you laugh watch you cry and know my words will never do,
   F
e|---------------------------------------------------------------------------|
B|-------------1---------------1---------------1---------------1-------------|
G|------2-------------2---------------2----------------2---------------------|
D|---------------------------------------------------------------------------|
A|---3-----3-------3-------3------3--------3-------3-------3-----------------|
E|---------------------------------------------------------------------------|

   G
e|---------------------------------------------------------------------------|
B|-------------3---------------3---------------3---------------3-------------|
G|------0-------------0---------------0----------------0---------------------|
D|---------------------------------------------------------------------------|
A|---2-----2-------2-------2------2--------2-------2-------2-----------------|
E|---------------------------------------------------------------------------|
My dear I know we’re alright so call me in the morning,
  C
e|---------------------------------------------------------------------------|
B|-------------1---------------1---------------1---------------1-------------|
G|------0-------------0---------------0----------------0---------------------|
D|---------------------------------------------------------------------------|
A|---3-----3-------3-------3------3--------3-------3-------3-----------------|
E|---------------------------------------------------------------------------|
Take a look in my eyes see a fire dawning,
   Am
e|---------------------------------------------------------------------------|
B|-------------1---------------1---------------1---------------1-------------|
G|------2-------------2---------------2----------------2---------------------|
D|---------------------------------------------------------------------------|
A|---0-----0-------0-------0------0--------0-------0-------0-----------------|
E|---------------------------------------------------------------------------|
Take a match set alight to everything we ever knew,
   F
e|---------------------------------------------------------------------------|
B|-------------1---------------1---------------1---------------1-------------|
G|------2-------------2---------------2----------------2---------------------|
D|---------------------------------------------------------------------------|
A|---3-----3-------3-------3------3--------3-------3-------3-----------------|
E|---------------------------------------------------------------------------|

   G
e|---------------------------------------------------------------------------|
B|-------------3---------------3---------------3---------------3-------------|
G|------0-------------0---------------0----------------0---------------------|
D|---------------------------------------------------------------------------|
A|---2-----2-------2-------2------2--------2-------2-------2-----------------|
E|---------------------------------------------------------------------------|
I’m holding onto something like you,
  C
e|------------------------0--------------------------------------------------|
B|-------------1---------------------------1------------1--------------------|
G|------0-----------0-------------0-----------0------------------------------|
D|---------------------------------------------------------------------------|
A|---3-----3----------3-------3------3-------------3-------------------------|
E|---------------------------------------------------------------------------|

  Am
e|------------------------0--------------------------------------------------|
B|-------------1---------------------------1------------1--------------------|
G|------2-----------2-------------2-----------2------------------------------|
D|---------------------------------------------------------------------------|
A|---0-----0----------0-------0------0-------------0-------------------------|
E|---------------------------------------------------------------------------|

  F
e|------------------------0--------------------------------------------------|
B|-------------1---------------------------1------------1--------------------|
G|------2-----------2-------------2-----------2------------------------------|
D|---------------------------------------------------------------------------|
A|---3-----3----------3-------3------3-------------3-------------------------|
E|---------------------------------------------------------------------------|

  G
e|------------------------0--------------------------------------------------|
B|-------------3---------------------------3------------3--------------------|
G|------0-----------0-------------0-----------0------------------------------|
D|---------------------------------------------------------------------------|
A|---2-----2----------2-------2------2-------------2-------------------------|
E|---------------------------------------------------------------------------|
Your words the only thing I’ve known,
  C
e|------------------------0--------------------------------------------------|
B|-------------1---------------------------1------------1--------------------|
G|------0-----------0-------------0-----------0------------------------------|
D|---------------------------------------------------------------------------|
A|---3-----3----------3-------3------3-------------3-------------------------|
E|---------------------------------------------------------------------------|
Your hurt the only thing you’ve shown,
  Am
e|------------------------0--------------------------------------------------|
B|-------------1---------------------------1------------1--------------------|
G|------2-----------2-------------2-----------2------------------------------|
D|---------------------------------------------------------------------------|
A|---0-----0----------0-------0------0-------------0-------------------------|
E|---------------------------------------------------------------------------|
And everything so deeply sown,
  F
e|------------------------0--------------------------------------------------|
B|-------------1---------------------------1------------1--------------------|
G|------2-----------2-------------2-----------2------------------------------|
D|---------------------------------------------------------------------------|
A|---3-----3----------3-------3------3-------------3-------------------------|
E|---------------------------------------------------------------------------|

  G
e|------------------------0--------------------------------------------------|
B|-------------3---------------------------3------------3--------------------|
G|------0-----------0-------------0-----------0------------------------------|
D|---------------------------------------------------------------------------|
A|---2-----2----------2-------2------2-------------2-------------------------|
E|---------------------------------------------------------------------------|
And now we’re and I think you know,
  C
e|------------------------0--------------------------------------------------|
B|-------------1---------------------------1------------1--------------------|
G|------0-----------0-------------0-----------0------------------------------|
D|---------------------------------------------------------------------------|
A|---3-----3----------3-------3------3-------------3-------------------------|
E|---------------------------------------------------------------------------|
You hide a smile to never show,
  Am
e|------------------------0--------------------------------------------------|
B|-------------1---------------------------1------------1--------------------|
G|------2-----------2-------------2-----------2------------------------------|
D|---------------------------------------------------------------------------|
A|---0-----0----------0-------0------0-------------0-------------------------|
E|---------------------------------------------------------------------------|
It hurts less if you let it go,
  F
e|------------------------0--------------------------------------------------|
B|-------------1---------------------------1------------1--------------------|
G|------2-----------2-------------2-----------2------------------------------|
D|---------------------------------------------------------------------------|
A|---3-----3----------3-------3------3-------------3-------------------------|
E|---------------------------------------------------------------------------|

  G
e|------------------------0--------------------------------------------------|
B|-------------3---------------------------3------------3--------------------|
G|------0-----------0-------------0-----------0------------------------------|
D|---------------------------------------------------------------------------|
A|---2-----2----------2-------2------2-------------2-------------------------|
E|---------------------------------------------------------------------------|
I see that look in your eyes fixed on another,
  C
e|------------------------0--------------------------------------------------|
B|-------------1---------------------------1------------1--------------------|
G|------0-----------0-------------0-----------0------------------------------|
D|---------------------------------------------------------------------------|
A|---3-----3----------3-------3------3-------------3-------------------------|
E|---------------------------------------------------------------------------|
Watch your fingers inter-twine wrapped round your knuckles,
  Am
e|------------------------0--------------------------------------------------|
B|-------------1---------------------------1------------1--------------------|
G|------2-----------2-------------2-----------2------------------------------|
D|---------------------------------------------------------------------------|
A|---0-----0----------0-------0------0-------------0-------------------------|
E|---------------------------------------------------------------------------|
Watch you laugh watch you cry and know my words will never do,
  F
e|------------------------0--------------------------------------------------|
B|-------------1---------------------------1------------1--------------------|
G|------2-----------2-------------2-----------2------------------------------|
D|---------------------------------------------------------------------------|
A|---3-----3----------3-------3------3-------------3-------------------------|
E|---------------------------------------------------------------------------|

  G
e|------------------------0--------------------------------------------------|
B|-------------3---------------------------3------------3--------------------|
G|------0-----------0-------------0-----------0------------------------------|
D|---------------------------------------------------------------------------|
A|---2-----2----------2-------2------2-------------2-------------------------|
E|---------------------------------------------------------------------------|
My dear I know we’re alright so call me in the morning,
  C
e|------------------------0--------------------------------------------------|
B|-------------1---------------------------1------------1--------------------|
G|------0-----------0-------------0-----------0------------------------------|
D|---------------------------------------------------------------------------|
A|---3-----3----------3-------3------3-------------3-------------------------|
E|---------------------------------------------------------------------------|
Take a look in my eyes see a fire dawning,
  Am
e|------------------------0--------------------------------------------------|
B|-------------1---------------------------1------------1--------------------|
G|------2-----------2-------------2-----------2------------------------------|
D|---------------------------------------------------------------------------|
A|---0-----0----------0-------0------0-------------0-------------------------|
E|---------------------------------------------------------------------------|
Take a match set alight to everything we ever knew,
  F
e|------------------------0--------------------------------------------------|
B|-------------1---------------------------1------------1--------------------|
G|------2-----------2-------------2-----------2------------------------------|
D|---------------------------------------------------------------------------|
A|---3-----3----------3-------3------3-------------3-------------------------|
E|---------------------------------------------------------------------------|
I’m holding onto something like you,
  G
e|------------------------0--------------------------------------------------|
B|-------------3---------------------------3------------3--------------------|
G|------0-----------0-------------0-----------0------------------------------|
D|---------------------------------------------------------------------------|
A|---2-----2----------2-------2------2-------------2-------------------------|
E|---------------------------------------------------------------------------|

[Outro]
                                                                              (x3)
e|---------------3----------------------------------0-----------------0------|
B|-------1----------------1--------1--------1----------------1---------------|
G|---------------------------------------------------------------------------|
D|---3-------3-----------------3-------------------------0--------0----------|
A|--------------------------------------3-------3----------------------------|
E|---------------------------------------------------------------------------|

e|------------0----------------0-----------------0------------------0--------|
B|----1---------------1----------------1------------------1------------------|
G|---------------------------------------------------------------------------|
D|---------------------------------------------------------------------------|
A|--0-----0------0--------0-----------------------------------------------3--|
E|---------------------------------3--------3--------3---------3-------------|

************************************
| p   Pull-off
************************************
Suggest correction
Creating personal tab
Creating personal tab
You can edit any tab online and save it as your Personal.

You can edit, replace or remove any tab part or add personal notes – all changes will be seen only by you.

Personal tabs can be accessed anytime from any device, even offline.
Learn more »
Give kudos to tab author, rate the tab!
1 2 3 4 5
comments
print report bad tab
guest
You may want to rate the tab now too:
select rating
Wanna post a correction for this tab? Suggest correction